Jellyfish

All Is Forgiven

Jellyfish

tabs Easy easy

by  TERR_SCHMITZ

save to print version add songbook text version e-mail correct tuner
chordsukulelecavacokeyboardtabbassdrumsharmonicaflute Guitar Pro
close

there isn't a video lesson for this song

chords

All Is Forgiven

	  		                             Jellyfish - All Is forgiven 

Tabbed by: Althaka 
Tuning: Semitone down (eb Bb Gb Db Ab Eb) 

This song is very difficult to tab by ear due to heavy distortion and multiple guitars playing 
so I'm not 100% sure if this is correct but since there aren't any other tabs out there, 
this should be somewhat helpful. 

Intro: 

eb|-0---0--0-0-0-0--1---------| 
Bb|-1---1--1-1-1-1--0---0h2---| 
Gb|-2---2--2-2-2-2--1---------| 
Db|-x---x--x-x-x-x--0---------| 
Ab|-3---3--3-3-3-3------------| 
Eb|---------------------------| 

Listen for strumming pattern 
Verse: 

eb|-0--0---0--|     |-0--0---0--|    |-0--0---0--| 
Bb|-0--2---0--|     |-0--2---0--|    |-0--2---0--| 
Gb|-1--1---1--| x12 |-1--1---1--| x4 |-1--1---1--| x4 
Db|-2--2---2--|     |-0--0---0--|    |-2--2---2--| 
Ab|-2--2---2--|     |-2--2---2--|    |-2--2---2--| 
Eb|-0--0---0--|     |-0--0---0--|    |-0--0---0--|   


eb|-2-2--2--2-2-2-2--|-2-2-2-2--| 
Bb|-2-2--2--2-2-2-2--|-2-2-2-2--| 
Gb|-3-3--3--3-3-3-3--|-2-2-2-2--| 
Db|-4-4--4--4-4-4-4--|-4-4-4-4--| 
Ab|-4-4--4--4-4-4-4--|-4-4-4-4--| 
Eb|-2-2--2--2-2-2-2--|-2-2-2-2--| 
                                                        
Chrous:                                                . 

eb|----------|     |----------|    |-0-0-0-0-0-0-|    |-0-0-0-0-0-0-| 
Bb|-0--4--0--|     |-0--4--0--|    |-2-2-2-2-2-2-|    |-2-2-2-2-2-2-| 
Gb|-1--1--1--| x2  |-3--3--3--| x2 |-2-2-2-2-2-2-| x2 |-1-1-1-1-1-1-| x2 
Db|-2--2--2--|     |-2--2--2--|    |-2-2-2-2-2-2-|    |-2-2-2-2-2-2-| 
Ab|(0)(0)(0)-|     |-x--x--x--|    |-0-0-0-0-0-0-|    |-x-x-x-x-x-x-| 
Eb|-2--2--2--|     |-2--2--2--|    |-2-2-2-2-2-2-|    |-0-0-0-0-0-0-|    

                   Optional (taken by voices) 
eb|-0-0-0-0-0-0-|       |-2-| 
Bb|-3-3-3-3-3-3-|       |-1-| 
Gb|-2-2-2-2-2-2-| x2    |-2-| 
Db|-0-0-0-0-0-0-|       |-0-| 
Ab|-------------|       |---| 
Eb|-------------|       |---| 

*Repeat Verse* 

Chorus 2: 

eb|----------|     |----------|    |-0-0-0-0-0-0-|    |-------------| 
Bb|-0--4--0--|     |-0--4--0--|    |-2-2-2-2-2-2-|    |-4-4-4-4-4-4-| 
Gb|-1--1--1--| x2  |-3--3--3--| x2 |-2-2-2-2-2-2-| x2 |-1-1-1-1-1-1-| x2 
Db|-2--2--2--|     |-2--2--2--|    |-2-2-2-2-2-2-|    |-1-1-1-1-1-1-| 
Ab|(0)(0)(0)-|     |-x--x--x--|    |-0-0-0-0-0-0-|    |-3-3-3-3-3-3-| 
Eb|-2--2--2--|     |-2--2--2--|    |-2-2-2-2-2-2-|    |-------------|    


*Instrumental quotation from hush* 

Play Verse chords until: 

eb|-2---|-2---|-----|-2---|  
Bb|-2---|-2---|-0---|-2---| 
Gb|-3---|-2---|-1---|-3---|(Rest) 
Db|-4---|-4---|-2---|-4---| 
Ab|-4---|-4---|-0---|-4---| 
Eb|-2---|-2---|-2---|-2---| 

eb|-2---|-2---|-0----------|-2---|-4-| 
Bb|-2---|-2---|-0--------0-|-2---|-0-| 
Gb|-3---|-2---|-1--------1-|-3---|-5-| 
Db|-4---|-4---|-2--------0-|-4---|-4-| 
Ab|-4---|-4---|-2--------2-|-4---|-x-| 
Eb|-2---|-2---|-0-(0-2-3)4-|-2---|-4-| 

Repeat these chords until end: 

eb|-0--0--0--|     |----------|    |-2--2--2--|    |-0--0--0--| 
Bb|-0--2--0--|     |-0--4--0--|    |-3--3--3--|    |-0--2--0--| 
Gb|-2--2--2--| x4  |-3--3--3--| x4 |-2--1--2--| x4 |-4--4--4--| x4 
Db|-2--2--2--|     |-2--2--2--|    |-0--0--0--|    |-4--4--4--| 
Ab|-0--0--0--|     |-x--x--x--|    |-0--0--0--|    |-2--2--2--| 
Eb|----------|     |-2--2--2--|    |----------|    |----------| 
		  

Full key step upFull key step up
Half key step upHalf key step up
Half key step downHalf key step down
Full key step downFull key step down
hide glossary

See also:

tabs Red Hot Chili Peppers - Tell Me Baby tabs Red Hot Chili Peppers - Otherside (solos e riff's) tabs Incubus - Pardon Me tabs Red Hot Chili Peppers - Scar Tissue (ver. 4) tabs Red Hot Chili Peppers - Live in Slane Castle tabs Good Charlotte - Lifestyles of the Rich and Famous
e-chords

Other versions:

tabs Jellyfish - All Is Forgiven
auto scroll beats size up size down change color hide chords drawings
tab show chords e-chords YouTube Clip e-chords hide all tabs e-chords go to top tab

share