Jeff Williams

Red Like Roses Part 2

Jeff Williams

tabs

by  PAULANTUNES

save to print version add songbook text version e-mail correct tuner
chordsukulelecavacokeyboardtabbassdrumsharmonicaflute Guitar Pro
close

there isn't a video lesson for this song

chords

Red Like Roses Part 2

	  		 


(Intro Verse) 
  I couldn't take it couldn't stand another minute 
  Couldn't bear another day without you in it 
e|---------------------------------------------------------------------------| 
B|---------------------------------------------------------------------------| 
G|---------------------------------------------------------------------------| 
D|----4-----------------------------------4----------------------------------| 
A|----2-----------------------------------2----------------------------------| 
E|---------------------------------------------------------------------------| 
  All the joy that I had known for my life 
  Was stripped away from me the minute that you died 
e|---------------------------------------------------------------------------| 
B|---------------------------------------------------------------------------| 
G|--------------------------------------------6------7-----------------------| 
D|--------------------------------------------4------5-----------------------| 
A|----5--------------------4-------------------------------------------------| 
E|----3--------------------2-------------------------------------------------| 

Repeat Intro Verse 

  (Verse) Play this part 8 times, Last stanza of verse ends with an E power chord on the 5th and 4th 
e|---------------------------------------------------------------------------| 
B|---------------------------------------------------------------------------| 
G|---------------------------------------------------------------------------| 
D|----4-----------7-------------------------------9--------------------------| 
A|----2-(x11)-----5-------------------------------7-(Last stanza only)-------| 
E|---------------------------------------------------------------------------| 
  Fill for last stanza 
e|---------------------------------------------------------------------------| 
B|--7-5-----------7-5--------------------------------------------------------| 
G|------7-6-5-4-5-----7-6-5-4------------------------------------------------| 
D|---------------------------------------------------------------------------| 
A|---------------------------------------------------------------------------| 
E|---------------------------------------------------------------------------| 
  (Pre-Chorus) 
  I know you didn't plan this 
  You tried to do what's right 
  But in the middle of this madness 
e|---------------------------------------------------------------------------| 
B|---------------------------------------------------------------------------| 
G|---------------------------------------------------------------------------| 
D|----2---------------------------------4------------------------------------| 
A|----2-(strum as much as needed)-------2-(strum as much as needed)----------| 
E|----0----------------------------------------------------------------------| 
  I'm the one you left to win this fight 
e|---------------------------------------------------------------------------| 
B|----------------------------------------------------------7h8-(x4)--7------| 
G|---------------------------------------------------------------------------| 
D|--4--------5---------------------9---8-------------------------------------| 
A|--2-(x2)---3-(x5)---7------------7---6---9---8-----------------------------| 
E|--------------------5-(x5)---------------7---6-----------------------------| 
  (Chorus) 
  Red like roses 
  Fills my head with dreams and finds me 
  Always closer 
  To the emptiness and sadness 
  That has come to take the place of you 
e|---------------------------------------------------------------------------| 
B|---------------------------------------------------------------------------| 
G|---------------------------------------------------------------------------| 
D|-4----------------------------------------4--------------------------------| 
A|-2-(x24)-5-------4-----------------4------2--------------------------------| 
E|---------3-(x12)-2-(x12)-(Repeat)--2-(x7)----------------------------------| 

Intro Verse(x2) 
Verse(x2) 
Pre-Chorus 
Chorus 
Bridge (play the B and F# power chords) 

  (Solo) Use wah pedal 
e|---------------------------------------------------------------------------| 
B|---12h14-14b-14br-12h14-12--------12h14-14b-14br-12---12-------------------| 
G|---------------------------11----------------------------11-10-9-----------| 
D|-----------------------------------------------------------------12-11-10-9| 
A|---------------------------------------------------------------------------| 
E|---------------------------------------------------------------------------| 

e|------------------------------------------------------15-14h15-(x4)-14-----| 
B|---12h14-14b-14br-12h14-12----------------------15-14----------------------| 
G|---------------------------11---11/12-----15-14----------------------------| 
D|--------------------------------------14-----------------------------------| 
A|---------------------------------------------------------------------------| 
E|---------------------------------------------------------------------------| 

End with Chorus 


************************************ 

| /   slide up 
| \   slide down 
| h   hammer-on 
| p   pull-off 
| ~   vibrato 
| +   harmonic 
| x   Mute note 
| b   Bend 
| pb  Pre-bend 
| br  Bend release 
| pbr Pre-bend release 
| brb Bend release bend 

************************************ 
		  

Full key step upFull key step up
Half key step upHalf key step up
Half key step downHalf key step down
Full key step downFull key step down
hide glossary

See also:

tabs Deep Purple - Strange kind of woman tabs Deep Purple - Smoke On The Water tabs Deep Purple - Time To Kill tabs Albert Hammond Jr - Gfc tabs Deep Purple - Soldier Of Fortune tabs Ira! - Nucleo De Base
e-chords

Other versions:

tabs Jeff Williams - Red Like Roses Part 2
auto scroll beats size up size down change color hide chords drawings
tab show chords e-chords YouTube Clip e-chords hide all tabs e-chords go to top tab

share