Jason Becker

Becker ola

Jason Becker

tabs Advanced advanced

by  VALLIM GUITAR

save to print version add songbook text version e-mail correct tuner
chordsukulelecavacokeyboardtabbassdrumsharmonicaflute Guitar Pro
close

there isn't a video lesson for this song

chords

Becker ola

	  		 
  W          E. S E S S E. S E S S 
|----------|-----------------------| 
|----------|-----------------------| 
|----------|------------0----------| 
|----------|-0--2----------2-------| 
|----------|-----------------------| 
|----------|------0---0------0---0-| 
 
 
  E. S E. S +Q   E. S   E. S E S S E. S E S S 
|---------3-(3)-------|------------------------| 
|---------3-(3)-------|------------------------| 
|---------1-(1)-------|------------0-----------| 
|-0--2----2-(2)-------|-0--2----------2-----2--| 
|----------------0--2-|------------------------| 
|------0--------------|------0---0-------------| 
 
 
  +E  S S E. S E. S +E  S S   E. S E S S E. S E S S   E. S E S S E S S +Q 
|---------------------------|-----------------------|-----------------------| 
|---------------------------|-----------------------|----------8-----8-(8)--| 
|---------------------------|-----------------------|----------7-----7-(7)--| 
|-(2)---0-------------------|------------5----------|----------6-----6-(6)--| 
|---------2--1-0----------5-|-5--7----------7-------|-5--7-----7-----7-(7)--| 
|-----------------3-(3)-----|------0---0------0---0-|------0----------------| 
 
 
  E. S E. S +E  S S S S S S 
|---------------------------| 
|---------8-(8)-------------| 
|------9----------9-7-------| 
|-7--9----------------9---8-| 
|---------------------------| 
|---------------------------| 
 
 
  S S S S S S S S S S S S S S S S   E. S E S S E. S E S S 
|---------------------------------|-----------------------| 
|---------------------------------|-----------------------| 
|---------------------------------|-----------------------| 
|-7-5-----7-----5-6---------------|------------5----------| 
|-------7---7-------7---5---------|-5--7----------7-------| 
|-------------------------7-6---5-|------0---0------0---0-| 
 
 
  E. S E. S +Q   E. S   E. S E S S E. S E S S   +E  S S E. S E. S +E  S S 
|---------------------|-----------------------|---------------------------| 
|---------8-(8)-------|-----------------------|---------------------------| 
|---------7-(7)-------|-----------------------|---------------------------| 
|---------6-(6)-------|------------5----------|---------------------------| 
|-5--7----7-(7)-------|-5--7----------7-----7-|-(7)---5-----------------5-| 
|------0---------5--7-|------0---0------------|---------7--6-5--3-(3)-----| 
 
 
  E. S E S S E. S E S S   E. S E S S E S S +Q     E. S E. S +E  S S S S S S 
|-----------------------|-----------------------|---------------------------| 
|-----------------------|----------8-----8-(8)--|---------8-(8)-------------| 
|-----------------------|----------7-----7-(7)--|------9----------9-7-------| 
|------------5----------|----------6-----6-(6)--|-7--9----------------9---8-| 
|-5--7----------7-------|-5--7-----7-----7-(7)--|---------------------------| 
|------0---0------0---0-|------0----------------|---------------------------| 
 
 
  E. S E.  S  E.  S Q     Q  Q  Q  E S S 
|----------------------|-----------------| 
|----------------------|-10-----8--------| 
|-------------------9--|---------------7-| 
|-7--7-9-----12--------|-----------------| 
|----------------10----|-----------------| 
|---------10-----------|-----------------| 
 
 
  W          S S S S E. S E. S S S S S 
|----------|----------------------------| 
|-5--------|------------2---------------| 
|----------|-6-7---6-4----2--4----------| 
|----------|-------------------6-7---6--| 
|----------|----------------------------| 
|----------|----------------------------| 
 
 
  E. S Q  +H       Q.   E +Q   Q    Q.   E +Q   Q    +Q    Q   Q   E.  S 
|----------------|----------------|----------------|------12--16--22-----| 
|----------------|----------------|----------------|---------------------| 
|----------------|----------------|------0-(0)-----|---------------------| 
|-4--6-----------|----------------|-------------0--|-(0)-----------------| 
|------7--(7)----|----------------|-1--------------|------------------23-| 
|----------------|-5----4-(4)--3--|----------------|---------------------| 
 
 
   +E  S S E. S E. S Q    Q  Q  Q  E S S 
|-----------------------|-5-----3------3-| 
|---------------3----5--|----------------| 
|--------2-4------------|----------------| 
|------------------5----|----------------| 
|-(23)--------5---------|----------------| 
|-----------------------|----------------| 
 
 
  E S S E. S E. S +Q     Q  S S S S E. S E. S 
|-----3----------------|-----------------------| 
|-------5--3-5--3-(3)--|----2-3---2----2-------| 
|----------------------|------------4----2--4--| 
|----------------------|-----------------------| 
|----------------------|-----------------------| 
|----------------------|-----------------------| 
 
 
  S S S S Q  +H       Q.   E +Q   Q    Q.   E +Q   Q    +H.      Q 
|-------------------|----------------|----------------|-------------| 
|-------------------|----------------|----------------|-------------| 
|-------------------|----------------|------0-(0)-----|-------------| 
|-6-7---6-----------|----------------|-------------0--|-(0)---------| 
|---------7--(7)----|----------------|-1--------------|-------------| 
|-------------------|-5----4-(4)--3--|----------------|-------------| 
 
 
   H     +Q..    S    +E.  S  Q   +E  S  S  Q 
|-19----(19)-------|---------------------------| 
|-19----(19)-------|---------------------------| 
|------------------|---------------------------| 
|------------------|---------------------------| 
|------------------|------19------------22-----| 
|---------------21-|-(21)----21--(21)------22--| 
 
 
   Q   E.  S  +Q..    S    +E.  S  Q   +E.  S Q 
|-----------------------|---------------------3---| 
|-----------------------|---------------------3---| 
|-----------------------|---------------------4---| 
|-----21----------------|-------------------------| 
|---------22-(22)-------|------19----------22-----| 
|-22-----------------21-|-(21)----21--(21)--------| 
 
 
  +E  S S E. S E. S Q    Q  Q  Q  E S S   W 
|-(3)------------------|-5-----3--------|------| 
|-(3)----------3----5--|--------------3-|-5----| 
|-(4)---2-4------------|----------------|------| 
|-----------------5----|----------------|------| 
|------------5---------|----------------|------| 
|----------------------|----------------|------| 
 
 
  S S S S +E  S S Q  S S S S   E. S Q  +H 
|----------------------------|----------------| 
|----------------------------|----------------| 
|-6-7---6-(6)---6------------|----------------| 
|-----------------7--6-7---6-|-4--6-----------| 
|----------------------------|------7--(7)----| 
|----------------------------|----------------| 
 
 
  Q.   E +Q   Q    Q.   E +Q   Q 
|----------------|-----------------| 
|----------------|-----------------| 
|----------------|------0-(0)------| 
|----------------|-------------0---| 
|----------------|-1---------------| 
|-5----4-(4)--3--|-----------------| 
 
 
  +Q    Q   Q   E.  S   E S S E. S E. S Q 
|------12--16--22-----|--------------------| 
|---------------------|------------3----5--| 
|---------------------|-----2-4------------| 
|-(0)-----------------|---------------5----| 
|------------------23-|----------5---------| 
|---------------------|--------------------| 
 
 
  Q  Q  Q  E S S   E S S E. S E. S Q 
|-5-----3------3-|-----3---------------| 
|----------------|-------5--3-5--3-5---| 
|----------------|---------------------| 
|----------------|---------------------| 
|----------------|---------------------| 
|----------------|---------------------| 
 
 
  Q  S S S S E. S E. S   S S S S E. S +H       Q.   E +Q   Q    Q.   E +Q   Q 
|----------------------|---------------------|----------------|----------------| 
|---------------2------|---------------------|----------------|----------------| 
|----6-7---6-4----2--4-|---------------------|----------------|------0-(0)-----| 
|----------------------|-6-7---6-------------|----------------|-------------0--| 
|----------------------|---------7--5-(5)----|----------------|-1--------------| 
|----------------------|---------------------|-5----4-(4)--3--|----------------| 
 
 
  +H.      Q     H     +Q..    S 
|-------------|-19----(19)-------| 
|-------------|-19----(19)-------| 
|-------------|------------------| 
|-(0)---------|------------------| 
|-------------|------------------| 
|-------------|---------------21-| 
 
 
   +E.  S  Q   +E  S  S  Q     Q   E.  S  +Q..    S 
|---------------------------|------------------------| 
|---------------------------|------------------------| 
|---------------------------|------------------------| 
|---------------------------|-----21-----------------| 
|------19------------22-----|---------22-(22)--------| 
|-(21)----21--(21)------22--|-22-----------------21--| 
 
 
   +E.  S  Q   +E.  S Q    +E  S S E. S E. S Q 
|---------------------3--|-(3)------------------| 
|---------------------3--|-(3)----------3----5--| 
|---------------------4--|-(4)---2-4------------| 
|------------------------|-----------------5----| 
|------19----------22----|------------5---------| 
|-(21)----21--(21)-------|----------------------| 
 
 
  Q  Q  Q  E S S   H.      E S  S 
|-5-----3--------|-------------15--| 
|--------------3-|-5-----------15--| 
|----------------|-----------------| 
|----------------|-----------------| 
|----------------|-----------------| 
|----------------|-----------------| 
 
 
   E.  S  E.  S  E.  S  E.  S    E.  S  E.  S  +H 
|-17--17-15-----12------------|-----------------------| 
|-17--17-15-----12-----15-----|-14-----12-------------| 
|---------------12-----12-----|-12-----12-------------| 
|------------14-----14-----14-|-----12-----14-(14)----| 
|------------14---------------|-----------------------| 
|------------15---------------|-----------------------| 
 
 
  Q.   E +Q   Q    Q.   E +Q   Q 
|----------------|----------------| 
|----------------|----------------| 
|----------------|------0-(0)-----| 
|----------------|-------------0--| 
|-0--------------|-1--------------| 
|------4-(4)--3--|----------------| 
 
 
   E.  S  Q   Q  Q    +W           E. S Q  Q  E. S   E. S E. S E. S E. S 
|-15--15-15--15-----|------------|-----------------|---------------------| 
|-15--15-15--15-----|------------|-----------------|---------------------| 
|-------------------|------------|-----------------|---------------------| 
|-------------------|------------|-----------------|---------------------| 
|-------------------|------------|-5--7------------|---------------------| 
|----------------3--|-(3)--------|------0--0--7--2-|-2--3-3--4-4--5-5--0-| 
 
 
  E S S S S S S S S S S S S S S   S S S S S S S S H      E. S Q  E. S E. S 
|-------------------------------|----------------------|-------------------| 
|-------------------------------|-----------------3----|-------------------| 
|-------------------------------|-----------------0----|-------------------| 
|-------------------------------|-----------------0----|-------------------| 
|-------7-5-----5-------------0-|-5-------------0------|---------2---------| 
|-----0-------7---7---6-5-3-----|---7---3-0-3-----3----|-0--0-0-----2-2--3-| 
 
 
  E. S E. S E. S E. S   E S S S S S S Q  E S S   E S S S S S S S S S S S S S S 
|---------------------|------------------------|-------------------------------| 
|---------------------|------------------------|-------------------------------| 
|---------------------|------------------------|-----0-------------------------| 
|---------------------|-------2-0-----0------2-|-------2-0-----0---------------| 
|---------------------|-------------2----------|-------------2---2---1-0-----0-| 
|-3--4-4--3-3--2-2--0-|-----0------------------|-------------------------3-----| 
 
 
  E. S Q  Q  E. S   E. S E. S E. S E. S   E S S S S S S S S S S S S S S 
|-----------------|---------------------|-------------------------------| 
|-----------------|---------------------|-------------------------------| 
|-----------------|---------------------|-------------------------------| 
|-----------------|---------------------|-------------------------------| 
|-5--7------------|---------------------|-------7-5-----5-------------0-| 
|------0--0--7--2-|-2--3-3--4-4--5-5--0-|-----0-------7---7---6-5-3-----| 
 
 
  S S S S S S S S H      E. S Q  E. S E. S   E. S E. S E. S E. S 
|----------------------|-------------------|---------------------| 
|-----------------3----|-------------------|---------------------| 
|-----------------0----|-------------------|---------------------| 
|-----------------0----|-------------------|---------------------| 
|-5-------------0------|---------2---------|---------------------| 
|---7---3-0-3-----3----|-0--0-0-----2-2--3-|-3--4-4--3-3--2-2--0-| 
 
 
  E S S S S S S Q  E S S   E S S S S S S S S S S S S S S   E. S Q  Q  Q 
|------------------------|-------------------------------|----2-2--2--2--| 
|------------------------|-------------------------------|------0--3--5--| 
|------------------------|-----0-------------------------|----2----------| 
|-------2-0-----0------2-|-------2-0-----0---------------|---------------| 
|-------------2----------|-------------2---2---1-0-----0-|-2-------------| 
|-----0------------------|-------------------------3-----|---------------| 
 
 
  Q  Q  E. S +E  S S   +S  E S E.  S  Q   Q 
|-2--2--2--2-(2)---2-|-(2)-----2--10-----10--| 
|-6--5--3--5-(5)---3-|-(3)---3-------12------| 
|--------------------|-----------------------| 
|--------------------|-----------------------| 
|--------------------|-----------------------| 
|--------------------|-----------------------| 
 
 
   E.  S  Q   E.  S  Q     +E  S  S  Q   Q   Q 
|-14--17----------------|------------------------| 
|--------18--17--15-----|------------------------| 
|-------------------16--|-(16)-------------------| 
|-----------------------|--------16-16--16--16---| 
|-----------------------|---------------17--19---| 
|-----------------------|--------17-19-----------| 
 
 
   Q   Q   E.  S  +E  S  S    +S  E  S  +S   S S  S  S  S S  S  E.  S 
|--------------------------|------------------------12----------------| 
|--------------------------|---------------------14----14-------------| 
|--------------------------|----------------14--------------14--------| 
|-16--16--16--16-(16)---16-|-(16)---14-(14)--------------------16-----| 
|-20--19--17--19-(19)---17-|-(17)----------------------------------17-| 
|--------------------------|------------------------------------------| 
 
 
   S  S S  S  S  S S  S  H 
|-----------------------------| 
|-----------------------------| 
|-----------------------------| 
|-----------------------------| 
|-----------------------------| 
|-17-14---10-10-12---10-10----| 
 
 
   +E  S  S  Q   Q   Q     Q   Q   E.  S  +E  S  S 
|-----------------------|--------------------------| 
|--------12-----12--12--|-12--12--12--12-(12)------| 
|-----------16--12--14--|-15--14--12--14-(14)---16-| 
|--------12-14----------|-----------------------14-| 
|-----------------------|--------------------------| 
|-(10)------------------|--------------------------| 
 
 
   +E  S  S  +E  S  S  Q   E.  S    E.  S  E.  S  +H 
|------------------15-----14--14-|-12--12-14--12-(12)----| 
|--------------------------------|-----------------------| 
|-(16)---14-(14)------14------14-|-12--12-14--12-(12)----| 
|-(14)---------------------------|-----------------------| 
|--------------------------------|-----------------------| 
|--------------------------------|-----------------------| 
 
 
   +E  S  S  Q   Q   Q     Q   Q   E.  S  +E  S  S   E S  S E S  S  +Q   E. S 
|-(12)------------------|-----------------------12-|-----12-----12-(12)-------| 
|--------12-----12--12--|-12--12--12--12-(12)---12-|-----12-----12-(12)-------| 
|-(12)------16--12--14--|-15--14--12--14-(14)------|--------------------------| 
|--------12-14----------|--------------------------|--------------------------| 
|-----------------------|--------------------------|---------------------0--1-| 
|-----------------------|--------------------------|--------------------------| 
 
 
  E. S E. S E S S E S S   E S S S S S S S S S S Q    S S S S Q  E. S E. S 
|-----------------------|--------------------------|----------------------| 
|---------------------3-|--------------------------|----------------------| 
|---------0-----0-------|-----3-2-0---2-0----------|----------------------| 
|----0-2----------------|-----------------2---1-0--|---------------0-2----| 
|-2---------------------|--------------------------|-2-1---0----2---------| 
|-----------------------|--------------------------|---------3----------0-| 
 
 
  E. S E S S E. S E S S   E. S E. S +Q   E. S   E. S E S S E. S E S S 
|-----------------------|---------3-(3)-------|-----------------------| 
|-----------------------|---------3-(3)-------|-----------------------| 
|------------0----------|---------1-(1)-------|------------0----------| 
|-0--2----------2-------|-0--2----2-(2)-------|-0--2----------2-----2-| 
|-----------------------|----------------0--2-|-----------------------| 
|------0---0------0---0-|------0--------------|------0---0------------| 
 
 
  +E  S S E. S E. S +E  S S   E. S E S S E. S E S S   E. S E. S E S S +Q 
|---------------------------|-----------------------|-----------------------| 
|---------------------------|-----------------------|---------8-----8-(8)---| 
|---------------------------|-----------------------|---------7-----7-(7)---| 
|-(2)---0-------------------|------------5----------|---------6-----6-(6)---| 
|---------2--1-0----------5-|-5--7----------7-------|-5--7----7-----7-(7)---| 
|-----------------3-(3)-----|------0---0------0---0-|------0----------------| 
 
 
  E. S E. S +E  S S S S S S 
|---------------------------| 
|---------8-(8)-------------| 
|------9----------9-7-------| 
|-7--9----------------9---8-| 
|---------------------------| 
|---------------------------| 
 
 
  S S S S S S S S S S S S S S S S   E. S E S S E. S E S S 
|---------------------------------|-----------------------| 
|---------------------------------|-----------------------| 
|---------------------------------|-----------------------| 
|-7-5-----7-----5-6---------------|------------5----------| 
|-------7---7-------7---5---------|-5--7----------7-------| 
|-------------------------7-6---5-|------0---0------0---0-| 
 
 
  E. S E. S +Q   E. S   E. S E S S E. S E S S   +E  S S E. S E. S +E  S S 
|---------------------|-----------------------|---------------------------| 
|---------8-(8)-------|-----------------------|---------------------------| 
|---------7-(7)-------|-----------------------|---------------------------| 
|---------6-(6)-------|------------5----------|---------------------------| 
|-5--7----7-(7)-------|-5--7----------7-----7-|-(7)---5-----------------5-| 
|------0---------5--7-|------0---0------------|---------7--6-5--3-(3)-----| 
 
 
  E. S E S S E. S E S S   E. S E. S E S S +Q     E. S E. S +E  S S S S S S 
|-----------------------|----------------------|---------------------------| 
|-----------------------|---------8-----8-(8)--|---------8-(8)-------------| 
|-----------------------|---------7-----7-(7)--|------9----------9-7-------| 
|------------5----------|---------6-----6-(6)--|-7--9----------------9---8-| 
|-5--7----------7-------|-5--7----7-----7-(7)--|---------------------------| 
|------0---0------0---0-|------0---------------|---------------------------| 
 
 
  E. S E.  S  E.  S Q     Q  Q  Q  E S S 
|----------------------|-----------------| 
|----------------------|-10-----8--------| 
|-------------------9--|---------------7-| 
|-7--7-9-----12--------|-----------------| 
|----------------10----|-----------------| 
|---------10-----------|-----------------| 
 
 
  W          S S S S E. S E. S S S S S 
|----------|----------------------------| 
|-5--------|------------2---------------| 
|----------|-6-7---6-4----2--4----------| 
|----------|-------------------6-7---6--| 
|----------|----------------------------| 
|----------|----------------------------| 
 
 
  E. S E. S +H       Q.   E +Q   Q    Q.   E +Q   Q    +Q   Q  Q   E.  S 
|------------------|----------------|----------------|------0--4--10--16-| 
|------------------|----------------|----------------|-------------------| 
|------------------|----------------|------0-(0)-----|-------------------| 
|-4--6-------------|----------------|-------------0--|-(0)---------------| 
|------7--5-(5)----|----------------|-1--------------|-------------------| 
|------------------|-5----4-(4)--3--|----------------|-------------------| 
 
 
  E S  S  E. S  E.  S  Q     Q  Q   Q  E S  S 
|-------------------------|-------------------| 
|-------------------------|-------------------| 
|-------------------------|-14-----12------12-| 
|------------0--------14--|-------------------| 
|--------------17---------|-------------------| 
|-----17-19--------15-----|-------------------| 
 
 
  E S  S  E.  S  E.  S  Q    Q   S  S S  S  E.  S  E.  S 
|--------------------------|------------------------------| 
|--------------------------|------------------------------| 
|-----12-------------------|------------------------------| 
|--------14--12-14--12-14--|------------------------------| 
|--------------------------|----16-17---16-14--16---------| 
|--------------------------|----------------------17--19--| 
 
 
   S  S S  S  E.  S  +H       Q.   E +Q   Q    Q.   E +Q   Q    +H.      Q 
|---------------------------|----------------|----------------|-------------| 
|---------------------------|----------------|----------------|-------------| 
|---------------------------|----------------|------0-(0)-----|-------------| 
|---------------------------|----------------|-------------0--|-(0)---------| 
|---------------------------|-0--------------|-1--------------|-------------| 
|-16-17---16-12--10-(10)----|------4-(4)--3--|----------------|-------------| 
 
 
   H     +Q..    S    +E.  S  E.  S  +S  E  S  Q 
|-19----(19)-------|------------------------------| 
|-19----(19)-------|------------------------------| 
|------------------|------------------------------| 
|------------------|---------19------------17-----| 
|------------------|------19------------------17--| 
|---------------21-|-(21)--------19-(19)----------| 
 
 
   Q   E.  S  +Q..    S    +E.  S  E.  S  +E.  S  Q 
|-----------------------|-----------------------------| 
|-----------------------|-----------------------------| 
|-----16----------------|---------14----------12-12---| 
|---------17-(17)-------|------14----------------12---| 
|-17-----------------16-|-(16)--------14-(14)----14---| 
|-----------------------|-----------------------------| 
 
 
   E.  S  E.  S  E.  S Q     Q  Q  Q  E S S 
|-------------------------|-----------------| 
|-12----------------------|-10-----8--------| 
|-11-------------------9--|---------------7-| 
|-13------------12--------|-----------------| 
|-----12-14---------10----|-----------------| 
|------------10-----------|-----------------| 
 
 
  W          S S S S E. S E. S S S S S 
|----------|----------------------------| 
|-5--------|------------2---------------| 
|----------|-6-7---6-4----2--4----------| 
|----------|-------------------6-7---6--| 
|----------|----------------------------| 
|----------|----------------------------| 
 
 
  E. S E. S +H       E. S E. S Q  E. S 
|------------------|-------------------| 
|------------------|-----------8-------| 
|------------------|------9-------9--7-| 
|-4--6-------------|-7--9----9---------| 
|------7--5-(5)----|-------------------| 
|------------------|-------------------| 
 
 
  E. S E. S +E  S S E. S   E. S E. S E. S S S S S 
|------------------------|-------------------------| 
|-5----3-----------------|-------------------------| 
|----4----3-(3)----------|-------------------------| 
|-----------------5------|-5--6--------------------| 
|-------------------7--5-|------7--5---------------| 
|------------------------|-----------7--7-5-7---5--| 
 
 
  E. S E S S E. S Q    Q  Q  Q  E S S 
|--------------------|-5-----3------3-| 
|------------3----5--|----------------| 
|--------------------|----------------| 
|------2-0-2----5----|----------------| 
|--------------------|----------------| 
|-3--0---------------|----------------| 
 
 
  E S S E. S E. S +Q     Q  S S S S E. S Q 
|-----3----------------|---------------------| 
|-------5--3-5--3-(3)--|----2-3---2----2-----| 
|----------------------|------------4----2---| 
|----------------------|---------------------| 
|----------------------|---------------------| 
|----------------------|---------------------| 
 
 
  S S S S Q  +H       E. S E. S Q  E. S   +E  S S Q  E. S +E  S  S 
|-------------------|--------------3----|-------5-3--7--5-(5)---10-| 
|-------------------|------5----3-----5-|-(5)----------------------| 
|-1-2---1-----------|-2--4----4---------|--------------------------| 
|---------2--(2)----|-------------------|--------------------------| 
|-------------------|-------------------|--------------------------| 
|-------------------|-------------------|--------------------------| 
 
 
   S  S S  S  S  S S  S  S  E.  S  E. 
|-12-10------12-10------10-----12-10--| 
|---------12---------12----12---------| 
|-------------------------------------| 
|-------------------------------------| 
|-------------------------------------| 
|-------------------------------------| 
 
 
   S  E.  S  E.  E.  S  +S   E.    +Q   Q   Q  E S  S    W 
|-15-----17-15--19--22-(22)-22--|-(22)----------------|-------| 
|----17-------------------------|---------------------|-------| 
|-------------------------------|---------------------|-------| 
|-------------------------------|---------------------|-------| 
|-------------------------------|----------22---------|-------| 
|-------------------------------|------------------22-|-24----| 
 
 
   S  S S  S  E.  S E. S S S S S 
|--------------------------------| 
|--------------------------------| 
|-------------------2--4---------| 
|------------------------6-7---6-| 
|--------------------------------| 
|-21-22---21-19--21--------------| 
 
 
  E. S E. S +H       H     S  S  S  S  S  S  S  S 
|------------------|-7----10----10----10----10-----| 
|------------------|---------12----12----12----12--| 
|------------------|-------------------------------| 
|-4--6-------------|-------------------------------| 
|------7--5-(5)----|-------------------------------| 
|------------------|-------------------------------| 
 
 
   S  S  S  S  S  S  S  S  S  S  S  S  S  S  S  S 
|-10----10----10----10----10----10----10----10----| 
|----12----12----12----12----12----12----12----12-| 
|-------------------------------------------------| 
|-------------------------------------------------| 
|-------------------------------------------------| 
|-------------------------------------------------| 
 
 
   S  S  S  S  S  S S S  E.  S  S  S S  S 
|-10----10---------------------10-12---12--| 
|----12----12----10---8-10--12-------------| 
|-------------12---------------------------| 
|------------------------------------------| 
|------------------------------------------| 
|------------------------------------------| 
 
 
   +E  S  S  E.  S  E.  S Q     Q  Q  Q  E S S 
|-(12)-----------------------|-----------------| 
|----------------------------|-10-----8------8-| 
|-------------------------9--|-----------------| 
|------------------12--------|-----------------| 
|--------12-14---------10----|-----------------| 
|---------------10-----------|-----------------| 
 
 
  E S S E. S E. S Q    Q  S S S S E. S E. S 
|--------------------|-----------------------| 
|-----8------5--3-5--|---------------2-------| 
|-------9--7---------|----6-7---6-4----2--4--| 
|--------------------|-----------------------| 
|--------------------|-----------------------| 
|--------------------|-----------------------| 
 
 
  s s S s e. s +h 
|---------------------*| 
|---------------------*| 
|---------------------*| 
|-6-7---6-------------*| 
|---------7--5-(5)----*| 
|---------------------*| 
 
 
 

		  

Full key step upFull key step up
Half key step upHalf key step up
Half key step downHalf key step down
Full key step downFull key step down
auto scroll beats size up size down change color hide chords drawings
tab show chords e-chords YouTube Clip e-chords hide all tabs e-chords go to top tab

share