Jasmine Thompson

Royals

Jasmine Thompson

tabs

by  ANDRSOUZA

save to print version add songbook text version e-mail correct tuner
chordsukulelecavacokeyboardtabbassdrumsharmonicaflute Guitar Pro
close

there isn't a video lesson for this song

chords

Royals

Key:  D More
Royals Key AA
Royals Key A#A#
Royals Key BB
Royals Key CC(one step down)
Royals Key C#C#(half step down)
Royals Key DD(original key)
Royals Key D#D#(half step up)
Royals Key EE(one step up)
Royals Key FF
Royals Key F#F#
Royals Key GG
Royals Key G#G#
	  		
verse 1: 

e|---------------------------------------------------------------------------| 
B|---------------------------------------------------------------------------| 
G|---------------------------------------------------------------------------| 
D|---------------------------------------------------------------------------| 
A|---------------------------------------------------------------------------| 
D|-12\---0---0---0---0---12-12-12-12-0---0---0---0---12-12-12-12-0---0---0---| 
                                                     I've never seen a diamond 

e|---------------------------------------------------------------------------| 
B|---------------------------------------------------------------------------| 
G|---------------------------------------------------------------------------| 
D|---------------------------------------------------------------------------| 
A|---------------------------------------------------------------------------| 
D|0---12-12-12-12-0---0---0---0---12-12-12-12-10---10---10---10---10-10-10-10| 
  in the flesh ... 

e|---------------------------------------------------------------------------| 
B|---------------------------------------------------------------------------| 
G|---------------------------------------------------------------------------| 
D|---------------------------------------------------------------------------| 
A|---------------------------------------------------------------------------| 
D|-9---9---9---9---9-10-10-10-0---0---0---0---12-12-12-12-0---0---0---0---12-| 


e|---------------------------------------------------------------------------| 
B|---------------------------------------------------------------------------| 
G|---------------------------------------------------------------------------| 
D|---------------------------------------------------------------------------| 
A|---------------------------------------------------------------------------| 
D|12-12-12-10---10---10---10---10-10-10-10-9---9---9---9---9-10-10-10-0---0/4| 
                                                         But every song's like ... 

e|---------------------------------------------------------------------------| 
B|---------------------------------------------------------------------------| 
G|---------------------------------------------------------------------------| 
D|---------------------------------------------------------------------------| 
A|---------------------------------------------------------------------------| 
D|---4/7---7/12---0---0---0---0---12-12-12-12-10---10---10---10---10-10-10-10| 


e|---------------------------------------------------------------------------| 
B|---------------------------------------------------------------------------| 
G|---------------------------------------------------------------------------| 
D|---------------------------------------------------------------------------| 
A|---------------------------------------------------------------------------| 
D|-9-9-9--9-7-5-----5-5-5-5-0---0/4---4/7---7/12---0---0---0---0---12-12-12--| 
                    But everybody's like ... 

e|---------------------------------------------------------------------------| 
B|---------------------------------------------------------------------------| 
G|---------------------------------------------------------------------------| 
D|---------------------------------------------------------------------------| 
A|---------------------------------------------------------------------------| 
D|12-10---10---10---10---10-10-10-10-9/19------------------------------------| 


Chorus: 
     D                D                C                G 
e|---2--2--2--2--2----2--2--2--2--2----0--0--0--0--0----3--3--3--3--3--------| 
B|---3--3--3--3--3----3--3--3--3--3----2--2--2--2--2----0--0--0--0--0--------| 
G|---2--2--2--2--2----2--2--2--2--2----0--0--0--0--0----0--0--0--0--0--------| 
D|---0--0--0--0--0----0--0--0--0--0----2--2--2--2--2----0--0--0--0--0--------| 
A|-------------------------------------3--3--3--3--3----2--2--2--2--2--------| 
D|---------------------------------------------------------------------------| 
And we'll never be royals ... 

     D                D                C                G 
e|---2--2--2--2--2----2--2--2--2--2----0--0--0--0--0----3--3--3--3--3--------| 
B|---3--3--3--3--3----3--3--3--3--3----2--2--2--2--2----0--0--0--0--0--------| 
G|---2--2--2--2--2----2--2--2--2--2----0--0--0--0--0----0--0--0--0--0--------| 
D|---0--0--0--0--0----0--0--0--0--0----2--2--2--2--2----0--0--0--0--0--------| 
A|-------------------------------------3--3--3--3--3----2--2--2--2--2--------| 
D|---------------------------------------------------------------------------| 
Let me be your ruler ... 

verse 2: 

e|---------------------------------------------------------------------------| 
B|---------------------------------------------------------------------------| 
G|---------------------------------------------------------------------------| 
D|0---0---0---0---12-----0---0---0---0---12-13-13-13-13-12-12---12---12---12-| 
A|0---0---0---0---12-----0---0---0---0---12-13-13-13-13-12-12---12---12---12-| 
D|0---0---0---0---12-----0---0---0---0---12-13-13-13-13-12-12---12---12---12-| 
My friends and I - we've cracked the code ... 

e|---------------------------------------------------------------------------| 
B|---------------------------------------------------------------------------| 
G|---------------------------------------------------------------------------| 
D|13-13-13-13-10---10---10---10---10-10-10-10-9---9---9---9---9-10-10-10-----| 
A|13-13-13-13-10---10---10---10---10-10-10-10-9---9---9---9---9-10-10-10-----| 
D|13-13-13-13-10---10---10---10---10-10-10-10-9---9---9---9---9-10-10-10-----| 
We count our dollars on the train ... 

e|---------------------------------------------------------------------------| 
B|---------------------------------------------------------------------------| 
G|---------------------------------------------------------------------------| 
D|0---0---0---0---12-12-12-12-0---0---0---0---12-12-12-12-12---10---10---10--| 
A|0---0---0---0---12-12-12-12-0---0---0---0---12-12-12-12-12---10---10---10--| 
D|0---0---0---0---12-12-12-12-0---0---0---0---12-12-12-12-12---10---10---10--| 
And everyone who knows us knows ... 

e|---------------------------------------------------------------------------| 
B|---------------------------------------------------------------------------| 
G|---------------------------------------------------------------------------| 
D|-10---10-10-10-10-9---9---9---9---9-10-10-10-0---0/4---4/7---7/12---0---0--| 
A|-10---10-10-10-10-9---9---9---9---9-10-10-10-0---0/4---4/7---7/12---0---0--| 
D|-10---10-10-10-10-9---9---9---9---9-10-10-10-0---0/4---4/7---7/12---0---0--| 


e|---------------------------------------------------------------------------| 
B|---------------------------------------------------------------------------| 
G|---------------------------------------------------------------------------| 
D|-0---0---12-12-12-12-10---10---10---10---10-10-10-10-----------------------| 
A|-0---0---12-12-12-12-10---10---10---10---10-10-10-10-----------------------| 
D|-0---0---12-12-12-12-10---10---10---10---10-10-10-10-9-9-9--9-7-5----------| 
                       We don't care, we're driving ... 

e|---------------------------------------------------------------------------| 
B|---------------------------------------------------------------------------| 
G|---------------------------------------------------------------------------| 
D|--------0---0/4---4/7---7/12---0---0/4---4/7---7/12---10---10---10---10----| 
A|--------0---0/4---4/7---7/12---0---0/4---4/7---7/12---10---10---10---10----| 
D|5-5-5-5-0---0/4---4/7---7/12---0---0/4---4/7---7/12---10---10---10---10----| 
But everybody's like ... 

e|---------------------------------------------------------------------------| 
B|---------------------------------------------------------------------------| 
G|---------------------------------------------------------------------------| 
D|10-10-10-10-9--------------------------------------------------------------| 
A|10-10-10-10-9--------------------------------------------------------------| 
D|10-10-10-10-9--------------------------------------------------------------| 

Chorus: 

     D                D                C                G 
e|---2--2--2--2--2----2--2--2--2--2----0--0--0--0--0----3--3--3--3--3--------| 
B|---3--3--3--3--3----3--3--3--3--3----2--2--2--2--2----0--0--0--0--0--------| 
G|---2--2--2--2--2----2--2--2--2--2----0--0--0--0--0----0--0--0--0--0--------| 
D|---0--0--0--0--0----0--0--0--0--0----2--2--2--2--2----0--0--0--0--0--------| 
A|-------------------------------------3--3--3--3--3----2--2--2--2--2--------| 
D|---------------------------------------------------------------------------| 
And we'll never be royals ... 

     D                D                C                G 
e|---2--2--2--2--2----2--2--2--2--2----0--0--0--0--0----3--3--3--3--3--------| 
B|---3--3--3--3--3----3--3--3--3--3----2--2--2--2--2----0--0--0--0--0--------| 
G|---2--2--2--2--2----2--2--2--2--2----0--0--0--0--0----0--0--0--0--0--------| 
D|---0--0--0--0--0----0--0--0--0--0----2--2--2--2--2----0--0--0--0--0--------| 
A|-------------------------------------3--3--3--3--3----2--2--2--2--2--------| 
D|---------------------------------------------------------------------------| 
Let me be your ruler ... 

Bridge: 
  D               D               C              G 
e|--------2---------------2---------------0--------------3-------------------| 
B|------3----3----------3----3----------2----2---------0----0----------------| 
G|---2----------2----2----------2----0---------0----0----------0-------------| 
D|0---------------0----------------------------------------------------------| 
A|--------------------------------3--------------2---------------------------| 
D|---------------------------------------------------------------------------| 
Ooh ooh oh ... 
  D               D               C              G 
e|--------2---------------2---------------0--------------3-------------------| 
B|------3----3----------3----3----------2----2---------0----0----------------| 
G|---2----------2----2----------2----0---------0----0----------0-------------| 
D|0---------------0----------------------------------------------------------| 
A|--------------------------------3--------------2---------------------------| 
D|---------------------------------------------------------------------------| 
Ooh ooh oh ... 

Chorus: 

     D                D                C                G 
e|---2--2--2--2--2----2--2--2--2--2----0--0--0--0--0----3--3--3--3--3--------| 
B|---3--3--3--3--3----3--3--3--3--3----2--2--2--2--2----0--0--0--0--0--------| 
G|---2--2--2--2--2----2--2--2--2--2----0--0--0--0--0----0--0--0--0--0--------| 
D|---0--0--0--0--0----0--0--0--0--0----2--2--2--2--2----0--0--0--0--0--------| 
A|-------------------------------------3--3--3--3--3----2--2--2--2--2--------| 
D|---------------------------------------------------------------------------| 
And we'll never be royals ... 

     D                D                C                G 
e|---2--2--2--2--2----2--2--2--2--2----0--0--0--0--0----3--3--3--3--3--------| 
B|---3--3--3--3--3----3--3--3--3--3----2--2--2--2--2----0--0--0--0--0--------| 
G|---2--2--2--2--2----2--2--2--2--2----0--0--0--0--0----0--0--0--0--0--------| 
D|---0--0--0--0--0----0--0--0--0--0----2--2--2--2--2----0--0--0--0--0--------| 
A|-------------------------------------3--3--3--3--3----2--2--2--2--2--------| 
D|---------------------------------------------------------------------------| 
Let me be your ruler ... 

     D                D                C                G 
e|---2--2--2--2--2----2--2--2--2--2----0--0--0--0--0----3--3--3--3--3--------| 
B|---3--3--3--3--3----3--3--3--3--3----2--2--2--2--2----0--0--0--0--0--------| 
G|---2--2--2--2--2----2--2--2--2--2----0--0--0--0--0----0--0--0--0--0--------| 
D|---0--0--0--0--0----0--0--0--0--0----2--2--2--2--2----0--0--0--0--0--------| 
A|-------------------------------------3--3--3--3--3----2--2--2--2--2--------| 
D|---------------------------------------------------------------------------| 
Ooh ooh oh ...                                               Let me live that fantasy ... 

e|---------------------------------------------------------------------------| 
B|---------------------------------------------------------------------------| 
G|---------------------------------------------------------------------------| 
D|0---0---0---0---12-13-13-13-13-12------------------------------------------| 
A|0---0---0---0---12-13-13-13-13-12------------------------------------------| 
D|0---0---0---0---12-13-13-13-13-12------------------------------------------| 

************************************ 

| /   slide up 
| \   slide down 
| h   hammer-on 
| p   pull-off 
| ~   vibrato 
| +   harmonic 
| x   Mute note 
| b   Bend 
| pb  Pre-bend 
| br  Bend release 
| pbr Pre-bend release 
| brb Bend release bend 

************************************ 
		  

Full key step upFull key step up
Half key step upHalf key step up
Half key step downHalf key step down
Full key step downFull key step down
hide glossary

See also:

tabs Ira! - Flerte Fatal (intro e solo) tabs Ira! - Tarde Vazia (Acústico) tabs Ira! - Envelheço na Cidade tabs Deep Purple - Deep Purple - Smoke On The Water tabs Deep Purple - Fireball (ver. 2) tabs Deep Purple - Smoke on the Water (correct)
e-chords

Other versions:

tabs Jasmine Thompson - Royals
auto scroll beats size up size down change color hide chords drawings
tab show chords e-chords YouTube Clip e-chords hide all tabs e-chords go to top tab

share