Janice Kapp Perry

A Childs Prayer

Janice Kapp Perry

tabs

by  JOV-CORREA

save to print version add songbook text version e-mail correct tuner
chordsukulelecavacokeyboardtabbassdrumsharmonicaflute Guitar Pro
close

there isn't a video lesson for this song

chords

A Childs Prayer

	  		Intro 

e|-------------|-------------|-------------|-------------| 
B|-------------|-----1-------|-------------|-------------| 
G|-----3-------|---0---0---0-|-----2-------|-------------| 
D|-0-3---3-0-3-|-1-------1---|---3---3---3-|-3-----0-1-3-| 
A|-------------|-------------|-3-------1---|-0-----------| 
E|-------------|-------------|-------------|-------------| 



Verses (Melody) 

e|-------------|-------------|-------------|-------------|-------------|-------------| 
B|-------------|-----1-------|---------1---|-------------|-----4-----3-|-3-----------| 
G|-----3-------|---0---0---0-|-----2-----2-|-----3-------|-0-3---3-----|---0-3-0---0-| 
D|-0-3---3-0-3-|-1-------1---|---3---3-----|-0-3---3-0-3-|---------4---|---------0---| 
A|-------------|-------------|-3-----------|-------------|-------------|-------------| 
E|-------------|-------------|-------------|-------------|-------------|-------------| 




e|-------------|---------1---|-------------|-------------|-------------|-------------| 
B|-----1-------|-------------|-------------|-----1-------|---------1---|-------------| 
G|---0---0---0-|-0-3-2-------|-----3-------|---0---0---0-|-----2-----2-|-----3-------| 
D|-2-------2---|-------3-----|-0-3---3-0-3-|-1-------1---|---3---3-----|-0-3---3-0-3-| 
A|-------------|-------------|-------------|-------------|-3-----------|-------------| 
E|-------------|-------------|-------------|-------------|-------------|-------------| 


                                            __________________ __________________ 
                                           |1. 2.             |3.                | 
e|-------------|-----3-------|-------------|------------------|------------------| 
B|-----4-----3-|---3---3-4---|-----3---4---|-3----------------|-3----------------| 
G|-0-3---3-----|-3-----------|---3---3---3-|-3----------------|-3----------------| 
D|---------4---|-----------1-|-3-----------|-3-1-0------0-1-3-|-3-1-0------------| 
A|-------------|-------------|-------------|------------------|------------------| 
E|-------------|-------------|-------------|------------------|------------------| 



verse 1 & 3 (Vocals) 

e|---|---|---|-------------|--------------|----------------|-------------| 
B|---|---|---|-------------|--------------|----------------|-------------| 
G|---|---|---|-------------|------------7-|-7-8-3----------|-------2-2-5-| 
D|---|---|---|-------0-1-3-|-5-3------3---|----------------|-5-3-3-------| 
A|---|---|---|-------------|--------------|----------3-5-6-|-------------| 
E|---|---|---|-------------|--------------|----------------|-------------|  
                   Heavenly Father... 

e|----------------|------------|--------------|-------------|---------------| 
B|----------------|------------|--------------|-------------|---------------| 
G|-5-7-3----------|--------2---|-3----0-0-2-3-|-3-5-5-3-3-5-|-5-------------| 
D|----------1-0-3-|-5-5--5---3-|--------------|-------------|---------0-1-3-| 
A|----------------|------------|--------------|-------------|---------------| 
E|----------------|------------|--------------|-------------|---------------| 
           

e|----------------|--------------|-------------|--------------|------------| 
B|----------------|--------------|-------2-2-5-|-5-7-3--------|------------| 
G|--------------7-|-7-8-5--------|-5-3-3-------|--------------|--------2---| 
D|-5-3-3------3---|--------3-5-6-|-------------|--------0-1-3-|-5-5--5---3-| 
A|----------------|--------------|-------------|--------------|------------| 
E|----------------|--------------|-------------|--------------|------------| 
                              _________________ ________________ 
                             |1.       (3.)    |3.              | 
e|-------------|-------------|-----------------|----------------| 
B|-------------|-------------|-----------------|----------------| 
G|-3-----3-5-7-|-7-3-3-0-2-3-|-3-------(0-1-3)-|-3--------------| 
D|-------------|-------------|-----------------|----------------| 
A|-------------|-------------|-----------------|----------------| 
E|-------------|-------------|-----------------|----------------| 
                     ...now to thee. (Heavenly) ...Thee 


verse 2 & 3 (Vocals) 

e|---|---|---|---|--------------|----------|-------------|------------|------------| 
B|---|---|---|---|--------------|----------|-------------|------------|------------| 
G|---|---|---|---|--------------|----------|-------------|------------|-0--------2-| 
D|---|---|---|---|-0--------0-3-|-1--------|---------3-1-|-1---0------|--------4---| 
A|---|---|---|---|--------------|----------|-3-----------|------------|------------| 
E|---|---|---|---|--------------|----------|-------------|------------|------------| 
                  Pray,    he is there... 
e|------------|------------|------------|------------|------------|------------| 
B|------------|------------|------------|------------|------------|------------| 
G|-0------0---|-0------0-3-|-3---2------|------------|------------|------------| 
D|------------|------------|------------|-0------0-3-|-1----------|--------3-1-| 
A|------------|------------|------------|------------|------------|-3----------| 
E|------------|------------|------------|------------|------------|------------| 
                                                      ____________ 
                                                     |2. 3.       | 
e|------------|------------|------------|------------|------------| 
B|------------|-0--------2-|------------|------------|------------| 
G|-1---1---0--|--------4---|-0---0------|------------|------------| 
D|------------|------------|---------1--|-0---0------|------------| 
A|------------|------------|------------|---------3--|-1----------| 
E|------------|------------|------------|------------|------------| 
                                    the  kingdom of   heav?n. 
		  

auto scroll beats size up size down change color hide chords drawings
tab show chords e-chords YouTube Clip e-chords hide all tabs e-chords go to top tab

share