Janes Addiction

Ain't No Right

Janes Addiction

tabs Intermediate intermediate

save to print version add songbook text version e-mail correct tuner
chordsukulelecavacokeyboardtabbassdrumsharmonicaflute Guitar Pro
close

there isn't a video lesson for this song

chords

Ain't No Right

Year: 1990 - Album: Ritual de lo Habitual

	  		Album: Ritual De Lo Habitual 
Transcribed by: Greenie 12 
Email: [email protected] 
 
 
Tuning: Standard (EADGBe) 
 
 
 
Chorus: 
 
 
e-|--0--------0--------------------|--0--------0----------------------|- 
B-|--0--------0--------------------|--0-------------------------------|- 
G-|--2--------2--------------------|--7--------------7----------------|- 
D-|--2--------2--------------------|--7-----------7-------------------|- 
A-|--0--------0--------------------|--5-------------------------------|- 
E-|--------------------------------|----------------------------------|- 
 
 
e-|--0---------0----------------------|---------------------------------|- 
B-|--0--------------------------------|---------------------------------|- 
G-|--2---------------2----------------|--x-x-2--2--x-x-5-5-5-5-5-5-5-5--|- 
D-|--2------------2-------------------|--x-x-2--2--x-x-5-5-5-5-5-5-5-5--|- 
A-|--0--------------------------------|--x-x-0--0--x-x-3-3-3-3-3-3-3-3--|- 
E-|-----------------------------------|---------------------------------|- 
 
 
 
Verse: 
 
                              * Harmonic      
e-|---------------------------------------------------|- 
B-|---------------------------------------------------|- 
G-|--2----x-x-2----x-2----x--<5>-<5>-<5>-<5>-<5>-<5>--|- 
D-|--2----x-x-2----x-2----x---------------------------|- 
A-|---------------------------------------------------|- 
E-|---------------------------------------------------|- 
 
 
 
Chorus: 
 
 
e-|--0---------0----------------------|--0--------0----------------------|- 
B-|--0--------------------------------|--0-------------------------------|- 
G-|--2---------------2----------------|--7--------------7----------------|- 
D-|--2------------2-------------------|--7-----------7-------------------|- 
A-|--0--------------------------------|--5-------------------------------|- 
E-|-----------------------------------|----------------------------------|- 
 
 
e-|--0---------0----------------------|---------------------------------|- 
B-|--0--------------------------------|---------------------------------|- 
G-|--2---------------2----------------|--x-x-2--2--x-x-5-5-5-5-5-5-5-5--|- 
D-|--2------------2-------------------|--x-x-2--2--x-x-5-5-5-5-5-5-5-5--|- 
A-|--0--------------------------------|--x-x-0--0--x-x-3-3-3-3-3-3-3-3--|- 
E-|-----------------------------------|---------------------------------|- 
 
 
 
Guitar Solo: 
 
 
e-|--------------------------|-----------------------------------------------------------|- 
B-|--17)~~~~~~~~~----17)~~~--|----------)-14-17h14-16h14---------)-14-17h14-16h14--------|- 
G-|--16--------------16------|--16p14-16-----------------16p14-16-----------------16p14--|- 
D-|--------------------------|-----------------------------------------------------------|- 
A-|--------------------------|-----------------------------------------------------------|- 
E-|--------------------------|-----------------------------------------------------------|- 
 
                                                 )?????????\   
e-|----------------------------------------|--16-------------14---)~~~~~--------|- 
B-|-----14---------------------------------|--------------------17--------------|- 
G-|--16----16~~~~~--16p14--16~~~~~--16p14--|------------------------------------|- 
D-|----------------------------------------|------------------------------------|- 
A-|----------------------------------------|------------------------------------|- 
E-|----------------------------------------|------------------------------------|- 
 
 
e-|----------------------------------|-----------------------------------------|- 
B-|---)---------|\------)------------|-------------------------------------/5--|- 
G-|--4---------4--p2-4-4----4h2------|-------------------------2~~~--------/6--|- 
D-|-----------------------------4h2--|--4~~~~~~--4h2-------2h4-----------------|- 
A-|----------------------------------|---------------4h2-4---------------------|- 
E-|----------------------------------|-----------------------------------------|- 
 
 
e-|---------------------------------|-------------------------------------------|- 
B-|------5--------5------5----/5----|--14--x-x-14--x--14------------------------|- 
G-|--4/6------4/6----4/6------/6----|--14--x-x-14--x--14------------------------|- 
D-|---------------------------------|--14--x-x-14--x--14------------------------|- 
A-|---------------------------------|-------------------------------------------|- 
E-|---------------------------------|-------------------------------------------|- 
 
 
 
Chorus: 
 
 
e-|--0--------0--------------------|--0--------0----------------------|- 
B-|--0--------0--------------------|--0-------------------------------|- 
G-|--2--------2--------------------|--7--------------7----------------|- 
D-|--2--------2--------------------|--7-----------7-------------------|- 
A-|--0--------0--------------------|--5-------------------------------|- 
E-|--------------------------------|----------------------------------|- 
 
 
e-|--0---------0----------------------|---------------------------------|- 
B-|--0--------------------------------|---------------------------------|- 
G-|--2---------------2----------------|--x-x-2--2--x-x-5-5-5-5-5-5-5-5--|- 
D-|--2------------2-------------------|--x-x-2--2--x-x-5-5-5-5-5-5-5-5--|- 
A-|--0--------------------------------|--x-x-0--0--x-x-3-3-3-3-3-3-3-3--|- 
E-|-----------------------------------|---------------------------------|- 
 
 
 
Verse: 
 
                              * Harmonic  
e-|---------------------------------------------------|- 
B-|---------------------------------------------------|- 
G-|--2----x-x-2----x-2----x--<5>-<5>-<5>-<5>-<5>-<5>--|- 
D-|--2----x-x-2----x-2----x---------------------------|- 
A-|---------------------------------------------------|- 
E-|---------------------------------------------------|- 
 
 
 
Chorus: 
 
 
e-|--0--------0--------------------|--0--------0----------------------|- 
B-|--0--------0--------------------|--0-------------------------------|- 
G-|--2--------2--------------------|--7--------------7----------------|- 
D-|--2--------2--------------------|--7-----------7-------------------|- 
A-|--0--------0--------------------|--5-------------------------------|- 
E-|--------------------------------|----------------------------------|- 
 
 
e-|--0---------0----------------------|---------------------------------|- 
B-|--0--------------------------------|---------------------------------|- 
G-|--2---------------2----------------|--x-x-2--2--x-x-5-5-5-5-5-5-5-5--|- 
D-|--2------------2-------------------|--x-x-2--2--x-x-5-5-5-5-5-5-5-5--|- 
A-|--0--------------------------------|--x-x-0--0--x-x-3-3-3-3-3-3-3-3--|- 
E-|-----------------------------------|---------------------------------|- 
 
 
 
Verse: 
 
                              * Harmonic  
e-|---------------------------------------------------|- 
B-|---------------------------------------------------|- 
G-|--2----x-x-2----x-2----x--<5>-<5>-<5>-<5>-<5>-<5>--|- 
D-|--2----x-x-2----x-2----x---------------------------|- 
A-|---------------------------------------------------|- 
E-|---------------------------------------------------|- 
 
 
 
Chorus: 
 
 
e-|--0--------0--------------------|--0--------0----------------------|- 
B-|--0--------0--------------------|--0-------------------------------|- 
G-|--2--------2--------------------|--7--------------7----------------|- 
D-|--2--------2--------------------|--7-----------7-------------------|- 
A-|--0--------0--------------------|--5-------------------------------|- 
E-|--------------------------------|----------------------------------|- 
 
 
e-|--0---------0----------------------|---------------------------------|- 
B-|--0--------------------------------|---------------------------------|- 
G-|--2---------------2----------------|--x-x-2--2--x-x-5-5-5-5-5-5-5-5--|- 
D-|--2------------2-------------------|--x-x-2--2--x-x-5-5-5-5-5-5-5-5--|- 
A-|--0--------------------------------|--x-x-0--0--x-x-3-3-3-3-3-3-3-3--|- 
E-|-----------------------------------|---------------------------------|- 
 
 
 
Outro: 
 
 
e-|---------------------------------|- 
B-|---------------------------------|- 
G-|---------------------------------|- 
D-|--4--4--x--4----4----------------|- 
A-|--4--4--x--4----4----------------|- 
E-|--2--2--x--2----2----------------|- 
 

		  

See also:

tabs Ozzy Osbourne - Paranoid (live) tabs Ozzy Osbourne - Crazy Train tabs Black Sabbath - War pigs (simplificada) tabs Iron Maiden - Brave New Word tabs Iron Maiden - Children of the Damned tabs Iron Maiden - Dream Of Mirrors
e-chords

Other versions:

tabs Janes Addiction - Ain't No Right tabs Janes Addiction - Aint No Right
auto scroll beats size up size down change color hide chords drawings
tab show chords e-chords YouTube Clip e-chords hide all tabs e-chords go to top tab

share