James Durbin

Stand Up

James Durbin

tabs

by  GUSTSILVA

save to print version add songbook text version e-mail correct tuner
chordsukulelecavacokeyboardtabbassdrumsharmonicaflute Guitar Pro
close

there isn't a video lesson for this song

chords

Stand Up

	  		Intro 

Guitar 1      
e|--------------------------------------------------------------------------| 
B|--------------------------------------------------------------------------| 
G|--------------------------------------------------------------------------| 
D|--------------------------------------------------------------------------|  repeat as needed 
A|---3h5--------------------------------------------------------------------| 
D|-0-----0-3-0-3h5-5--------------------------------------------------------| 

Guitar 2 
e|--------------------------------------------------------------------------| 
B|-13---15------------------------------------------------------------------| 
G|-15b--17b-----------------------------------------------------------------| 
D|--------------------------------------------------------------------------| 
A|--------------------------------------------------------------------------| 
D|--------------------------------------------------------------------------| 


verse 1 

e|--------------------------------------------------------------------------| 
B|--------------------------------------------------------------------------| 
G|--------------------------------------------------------------------------| 
D|-----5----------------------3-3-3-5------------8--10----5-----------------| 
A|-x-x-3-5--0-0-0-0--3-3-3-3--1-1-1-3--5-5-5-5---8--10----5-----------------| 
D|-x-x---5--0-0-0-0--3-3-3-3-----------5-5-5-5---8--10----5-----------------| 
            * * * *  * * * *  * * *    * * * * 

Chorus 

e|---------------------------------------------------------------------------| 
B|--3------------------------------------------------------------------------| 
G|--2---5--------------------------------------------------------------------| 
D|--0---5----5---3--5--------------------------------------------------------| 
A|--0---3----5---3--5--------------------------------------------------------| 
D|--0--------5---3--5--------------------------------------------------------| 




verse 2 

e|---------------------------------------------------------------------------| 
B|---------------------------------------------------------------------------| 
G|---------------------------------------------------------------------------| 
D|--------------------3-3-3-5------------------------------------------------| 
A|--0-0-0-0--3-3-3-3--1-1-1-3--5-5-5-5---------------------------------------| 
D|--0-0-0-0--3-3-3-3-----------5-5-5-5---------------------------------------| 
    * * * *  * * * *  * * *    * * * *  

e|---------------------------------------------------------------------------| 
B|---------------------------------------------------------------------------| 
G|---------------------------------------------------------------------------| 
D|------------------------------------------------------8--10---5------------| 
A|-0--0--0--0--3--3--3--3--8--8--8--8-10--5--5--5--5----8--10---5------------| 
D|-0--0--0--0--3--3--3--3--8--8--8--8-10--5--5--5--5----8--10---5------------| 


(Chorus) 

e|---------------------------------------------------------------------------| 
B|--3------------------------------------------------------------------------| 
G|--2---5--------------------------------------------------------------------| 
D|--0---5----5---3--5--------------------------------------------------------| 
A|--0---3----5---3--5--------------------------------------------------------| 
D|--0--------5---3--5--------------------------------------------------------| 


Bridge 

e|---------------------------------------------------------------------------| 
B|---------------------------------------------------------------------------| 
G|---------------------------------------------------------------------------| 
D|---------------------------------------------------------------------------| repeat as needed 
A|---5-3-5-3-----------------------------------------------------------------| 
D|-0---------6-5-3-0---------------------------------------------------------| 

e|---------------------------------------------------------------------------| 
B|---------------------------------------------------------------------------| 
G|------------------7--------------------------------------------------------| 
D|--8---5---0-------x--0-----3---5-------------------------------------------|  
A|--8---5---0--x-x--5--0--x--3---5-------------------------------------------| 
D|--8---5---0--x-x-----0--x--3---5-------------------------------------------| 

e|---------------------------------------------------------------------------| 
B|---------------------------------------------------------------------------| 
G|------------------7--------------------------------------------------------| 
D|--8---5---0-------x--0-------3--5---8--7-----------------------------------| 
A|--8---5---0--x-x--5--0--x-x--3--5---8--7-----------------------------------| 
D|--8---5---0--x-x-----0--x-x--3--5---8--7-----------------------------------| 

e|---------------------------------------------------------------------------| 
B|---------------------------------------------------------------------------| 
G|---------------------------------------------------------------------------| 
D|--0--0----5--5---5---------------------------------------------------------| 
A|--0--0----3--3---5---------------------------------------------------------| 
D|--0--0-----------5---------------------------------------------------------| 


(Chorus) 

e|---------------------------------------------------------------------------| 
B|--3------------------------------------------------------------------------| 
G|--2---5--------------------------------------------------------------------| 
D|--0---5----5---3--5--------------------------------------------------------| repeat as needed 
A|--0---3----5---3--5--------------------------------------------------------| 
D|--0--------5---3--5--------------------------------------------------------| 


Outro 

e|---------------------------------------------------------------------------| 
B|---------------------------------------------------------------------------| 
G|---------------------------------------------------------------------------| 
D|---------------------------------------------------------------------------| repeat as needed 
A|---5-3-5-3-----------------------------------------------------------------| 
D|-0----------6-5-3-0--------------------------------------------------------| 



************************************ 

| x  Dead note 
| h  Hammer-on 
| b  Bend 

************************************ 
		  

See also:

tabs Red Hot Chili Peppers - I Could Have Lied tabs Ben Harper - Diamonds on inside tabs Red Hot Chili Peppers - By The Way (ver. 2) tabs Audioslave - Show Me How To Live tabs Incubus - 11 A.M. tabs Red Hot Chili Peppers - Scar Tissue
e-chords

Other versions:

tabs Mel McDaniel - Stand Up tabs Pennywise - Stand Up tabs All That Remains - Stand Up tabs Jet - Stand Up tabs James Durbin - Stand Up tabs Fireflight - Stand Up
auto scroll beats size up size down change color hide chords drawings
tab show chords e-chords YouTube Clip e-chords hide all tabs e-chords go to top tab

share