James Bond

James Bond Theme(ver.3)

James Bond

tabs

by  KEVIN D

save to print version add songbook text version e-mail correct tuner
chordsukulelecavacokeyboardtabbassdrumsharmonicaflute Guitar Pro
close

there isn't a video lesson for this song

chords

James Bond Theme(ver.3)

	  		E|----------------------------| 
B|----------------------------| 
G|----------------------------|   x2 
D|----------------------------| 
A|----------------------------| 
E|-----0-2-2-0-0--0-3-3-2-2---| 
 
E|----------------------------------------------| 
B|----------------------------------------------| 
G|----------------------------------1-0---------| 
D|--------------------------------------2-0-2---| 
A|-----0-2-2-0-0--0-3-3-2-1---------------------| 
E|----------------------------------------------| 

		  

auto scroll beats size up size down change color hide chords drawings
tab show chords e-chords YouTube Clip e-chords hide all tabs e-chords go to top tab

share