Jake Owen

Anywhere With You

Jake Owen

tabs

by  BRUNBLAZKOWSKI

save to print version add songbook text version e-mail correct tuner
chordsukulelecavacokeyboardtabbassdrumsharmonicaflute Guitar Pro
close

there isn't a video lesson for this song

chords

Anywhere With You

	  		First tab so corrections/critics welcome.  Couldn't find a tab for this song so I  
gave it a go myself. 
Standard Tuning 
Key: F  (Chords F, Bb, Dm, C) 
This tab is mostly of the lead guitar intro, Chorus caps, and solo. 

h- hammer on 
p- pull off 
s-slide to fret 
b-bend string to different note 
In this tab when I have (13) written down you are actually playing the b string, 11th  
fret, and bending it up to the sound of the note on the 13th fret. 

Intro 
e--------------------------------------------------------13-------------------| 
b------------------11b(13)-(13)b11-10---------10-11b(13)---(13)b11-10-11b(13--| 
g-7~7~-----------------------------------10h12--------------------------------| 
d-----8-8p7-10p7--------------------------------------------------------------| 
a----------------8------------------------------------------------------------| 
E-----------------------------------------------------------------------------| 

e-----------------------------------------12s13-12--9s10----------------------| 
b--------10-11b(13)-(13)b11-10--------10-----------------13-------------------| 
g--10h12-------------------------10h12----------------------------------------| 
d-----------------------------------------------------------------------------| 
a-----------------------------------------------------------------------------| 
E-----------------------------------------------------------------------------| 



Chorus Tags 
e-----------------------------------------13---------------------------| 
b---11b(13)-(13)b11-10---------10--11b(13)---(13)b11-10-11b(13)--------| 
g------------------------10h12-----------------------------------------| 
d----------------------------------------------------------------------| 
a----------------------------------------------------------------------| 
E----------------------------------------------------------------------| 

e-------------------------------------------12s13-12--9s10--------------------| 
b--------10--11b(13)-(13)b11-10--------10-------------------13----------------| 
g--10h12-------------------------10h12----------------------------------------| 
d-----------------------------------------------------------------------------| 
a-----------------------------------------------------------------------------| 
E-----------------------------------------------------------------------------| 


Solo 
e-------------------------------13--------------------------------------------| 
b--10~10~-----------10--11b(13)----(13)b11-10-11b(13)--10-11-13-10-11-13------| 
g----------10--10h12----------------------------------------------------------| 
d-----------------------------------------------------------------------------| 
a-----------------------------------------------------------------------------| 
E-----------------------------------------------------------------------------| 

e-----10-12-13p12-13-15-b(17)-15p13p12-13------------------------------------| 
b--13-------------------------------------13p11p10-11------------------------| 
g------------------------------------------------------12p10p9-10------------| 
d----------------------------------------------------------------------------| 
a----------------------------------------------------------------------------| 
E----------------------------------------------------------------------------| 

Outro 
e-----------------------------------------13---------------------------| 
b---11b(13)-(13)b11-10---------10--11b(13)---(13)b11-10-11b(13)--------| 
g------------------------10h12-----------------------------------------| 
d----------------------------------------------------------------------| 
a----------------------------------------------------------------------| 
E----------------------------------------------------------------------| 

e-----------------------------------------------------------------------------| 
b--------10--11b(13)-(13)b11-10--------10-------------------------------------| 
g--10h12-------------------------10h12--------7~7~----------------------------| 
d--------------------------------------------------8-8p7-10p7-----------------| 
a-------------------------------------------------------------8---------------| 
E-----------------------------------------------------------------------------| 
		  

Full key step upFull key step up
Half key step upHalf key step up
Half key step downHalf key step down
Full key step downFull key step down
auto scroll beats size up size down change color hide chords drawings
tab show chords e-chords YouTube Clip e-chords hide all tabs e-chords go to top tab

share