Jair e Hosana

Alma Cansada

Jair e Hosana

tabs

by  HELON

save to print version add songbook text version e-mail correct tuner
chordsukulelecavacokeyboardtabbassdrumsharmonicaflute Guitar Pro
close

there isn't a video lesson for this song

chords

Alma Cansada

(Jair e Hosana)

	  		                  


1   |   |   |   |   |   |     |   |   |   |   |   |  |   |   |   |   |   |     
E |-------------------------|----------------------|-------------------------| 
B |-------------1-----------|-1-1---2-1------------|------------------1------| 
G |---------1-3---------1-3-|-----3-----1-0--------|---------1-3-3-3-----3-1-| 
D |------1-----------1------|----------------------|------1------------------| 
A |-------------------------|----------------------|-------------------------| 
E |-------------------------|----------------------|-------------------------| 



4   |   |   |   |   |   |  |   |   |   |   |   |     |   |   |   |   |   |  
E |----------------------|-------------------------|-------1--------------| 
B |----------------------|-------------1-1---------|-1-1-----4---2--------| 
G |-0-0--1--0------------|---------1-3---------1-3-|-----1-----1----------| 
D |-----------3-1--------|------1-----------1------|----------------------| 
A |----------------------|-------------------------|----------------------| 
E |----------------------|-------------------------|----------------------| 



7   |   |   |   |   |   |     |   |   |   |   |   |     |   |   |   |   |   |  
E |-----------------------1-|-------------------------|----------------------| 
B |-----2-2-----1-1-----1---|-4---------------1-2-1---|----------------------| 
G |---------1-3-----1-1-----|-----------------------3-|-1--------------------| 
D |-------------------------|-------------------------|----------------------| 
A |-------------------------|-------------------------|----------------------| 
E |-------------------------|-------------------------|----------------------| 



10  |   |   |   |   |   |     |   |   |   |   |   |     |   |   |   |   |   |     
E |------------------1------|-----------------------1-|-------------------------| 
B |-4-------------------4-2-|-1-------------------2---|-4---------------1-2-1---| 
G |-------------------------|---1-------------1-1-----|-----------------------3-| 
D |-------------------------|-------------------------|-------------------------| 
A |-------------------------|-------------------------|-------------------------| 
E |-------------------------|-------------------------|-------------------------| 



13  |   |   |   |   |   |  |   |   |   |   |   |     |   |   |   |   |   |     
E |----------------------|------------------1------|-----------------------1-| 
B |-1--------------------|-4-------------------4-2-|-1-------------------2---| 
G |----------------------|-------------------------|---1-------------1-1-----| 
D |----------------------|-------------------------|-------------------------| 
A |----------------------|-------------------------|-------------------------| 
E |----------------------|-------------------------|-------------------------| 



16  |   |   |   |   |   |     |   |   |   |   |   |     |   |   |   |   |   |     
E |-------------------------|-------------------------|-------------------------| 
B |-4---4-2-2-2-1---1-2-1---|-------------------------|-1-----------1-1---2-1---| 
G |-----------------------3-|-1-------------------1-3-|---------1-3-----3-----1-| 
D |-------------------------|------------------1------|------1------------------| 
A |-------------------------|-------------------------|-------------------------| 
E |-------------------------|-------------------------|-------------------------| 



19  |   |   |   |   |   |     |   |   |   |   |   |     |   |   |   |   |   |     
E |-------------------------|-------------------------|-------------------------| 
B |-------------------------|------1------------------|-------------------------| 
G |-0-------------------1-3-|-3-3-----3-1-0-0--1--0---|---------------------1-3-| 
D |------------------1------|-----------------------3-|-1----------------1------| 
A |-------------------------|-------------------------|-------------------------| 
E |-------------------------|-------------------------|-------------------------| 



22  |   |   |   |   |   |     |   |   |   |   |   |     |   |   |   |   |   |  
E |-------------------1-----|-------------------------|-----------1----------| 
B |-1-1---------1-1-----4---|-2---------------2-2-----|-1-1-----1---4--------| 
G |---------1-3-----1-----1-|---------------------1-3-|-----1-1--------------| 
D |------1------------------|-------------------------|----------------------| 
A |-------------------------|-------------------------|----------------------| 
E |-------------------------|-------------------------|----------------------| 



25  |   |   |   |   |   |  |   |   |   |   |   |  |   |   |   |   |   |  
E |----------------------|----------------------|------1---------------| 
B |-----1-2-1------------|-------------4--------|---------4-2-1--------| 
G |-----------3-1--------|----------------------|---------------1------| 
D |----------------------|----------------------|----------------------| 
A |----------------------|----------------------|----------------------| 
E |----------------------|----------------------|----------------------| 



28  |   |   |   |   |   |  |   |   |   |   |   |  |   |   |   |   |   |  
E |-----------1----------|----------------------|----------------------| 
B |---------2---4--------|-----1-2-1---1--------|-------------4--------| 
G |-----1-1--------------|-----------3----------|----------------------| 
D |----------------------|----------------------|----------------------| 
A |----------------------|----------------------|----------------------| 
E |----------------------|----------------------|----------------------| 



31  |   |   |   |   |   |  |   |   |   |   |   |     |   |   |   |   |   |  
E |------1---------------|-----------1-------------|----------------------| 
B |---------4-2-1--------|---------2---4---4-2-2-2-|-1---1-2-1------------| 
G |---------------1------|-----1-1-----------------|-----------3----------| 
D |----------------------|-------------------------|----------------------| 
A |----------------------|-------------------------|-------------11-------| 
E |----------------------|-------------------------|----------------------| 



34  |   |   |   |   |   |  
E |----------------------| 
B |----------------------| 
G |----------------------| 
D |----------------------| 
A |----------------------| 
E |----------------------| 
		  

See also:

tabs Capital Inicial - Natasha tabs Legião Urbana - Índios tabs Legião Urbana - Hoje A Noite Não Tem Luar tabs Legião Urbana - Ainda É Cedo tabs Raul Seixas - Metamorfose Ambulânte (solo) tabs Ultraje a Rigor - Ciúme
e-chords

Other versions:

tabs Jair e Hosana - Alma Cansada
auto scroll beats size up size down change color hide chords drawings
tab show chords e-chords YouTube Clip e-chords hide all tabs e-chords go to top tab

share