Jacco Gardner

Hypnophobia Tab

Jacco Gardner

Difficulty: nolevelnolevel

by carlluz

tuner correct add songbook print version text version save to e-mail
chordsukulelecavacokeyboardtabbassdrumsharmonicsflute Guitar Pro
close

there isn't a video lesson for this song

request
chords

Hypnophobia

  		


INTRO 

e|-------5-------5-------7-------7-| 
B|-----------6---------------8-----| 
G|---------------------------------| 
D|---0---------------0-------------| play this throughout the intro   
A|-0---------------0---------------| 
E|---------------------------------| 




e|-------------------12--13--17----| 
B|-------13--12--15----------------| (this is played by synth,  
G|---14----------------------------|  but you can play it on guitar either way) 
D|---------------------------------| 
A|---------------------------------| 
E|---------------------------------| 


verse 1 1:33 (play it like this ---------------) 
The riddles of your dreams at night             | 
I ransom(?) my morning light                    | 
Memories of moments fade away                   | 
Forget the things you see, before you wake      | 
                                                v 


e|-8-----------8---7-----------7---0-----------0---5-----------5---| 
B|-------6---------------6---------------6---------------6---------| 
G|-----7-----7---------7-----7---------7-----7---------7-----7-----| 
D|-0-------0-------0-------0-------0-------0-------0-------0-------| 
A|-----------------------------------------------------------------| 
E|-----------------------------------------------------------------| 

e|-3-----------3---0-----------0---1-----------1---1-----------1---| 
B|-------5---------------1---------------3---------------3---------| 
G|-----5-----5---------2-----2---------3-----3---------2-----2-----| 
D|-0-------0-------0-------0-------0-------0-------0-------0-------| 
A|-----------------------------------------------------------------| 
E|-----------------------------------------------------------------| 


REPEAT INTRO 2:03 

e|-------5-------5-------7-------7-| 
B|-----------6---------------8-----| 
G|---------------------------------| 
D|---0---------------0-------------| play this again   
A|-0---------------0---------------| 
E|---------------------------------| 


BREAK 2:34 (bass & synth, no guitar at first) 

e|-------5-------5-------7-------7-| 
B|-----------6---------------8-----| 
G|---------------------------------| 
D|---0---------------0-------------| around 3:35, play this again 
A|-0---------------0---------------| 
E|---------------------------------| 


verse 2 / OUTRO VERSE 

- same as verse 1 
	  

Search Paypal
auto scroll beats size up size down change color hide chords drawings
tab show chords e-chords YouTube Clip e-chords hide all tabs e-chords go to top tab

share with facebook