Isolation Berlin

Aquarium

Isolation Berlin

tabs

by  ROBEPOIEL

save to print version add songbook text version e-mail correct tuner
chordsukulelecavacokeyboardtabbassdrumsharmonicaflute Guitar Pro
close

there isn't a video lesson for this song

chords

Aquarium

	  		Intro 
                                 
e|--------------------------------7---9--------------------------------------|     | 
B|-------11---9----7------7-------7---9--------------------------------------|     | 
G|----11------10---8--------8------------------------------------------------|     | 
D|-11-------------------9----------------------------------------------------|     | 
A|---------------------------------------------------------------------------|     | 
E|---------------------------------------------------------------------------|     | 
                                                                                    >2x 
e|--------------------------------7/9----------------------------------------|     | 
B|-------11---9----7------7-------7/9----------------------------------------|     | 
G|----11------10---8--------8------------------------------------------------|     | 
D|-11-------------------9----------------------------------------------------|     |  
A|---------------------------------------------------------------------------|     | 
E|---------------------------------------------------------------------------|   


Überleitung nach Chorus 
e|------9-------9-------------7-----7----------------------------------------| 
B|----9-------9------9------7-----7------7-----------------------------------| 
G|-10------10-----10------8-----8------8----------|gleich zum Intro--> |-----| 
D|---------------------------------------------------------------------------| 
A|---------------------------------------------------------------------------| 
E|---------------------------------------------------------------------------|  
		  

See also:

tabs Ira! - Envelheço na Cidade tabs Deep Purple - Smoke On Water tabs Ira! - Inundação de Amor tabs Deep Purple - Stormbringer tabs Deep Purple - Money Talks tabs Ira! - A vida por um fio
e-chords

Other versions:

tabs Isolation Berlin - Aquarium
auto scroll beats size up size down change color hide chords drawings
tab show chords e-chords YouTube Clip e-chords hide all tabs e-chords go to top tab

share