Ireland Boys

Winner

Ireland Boys

tabs

by  DEIVCAVALCANTI

save to print version add songbook text version e-mail correct tuner
chordsukulelecavacokeyboardtabbassdrumsharmonicaflute Guitar Pro
close

there isn't a video lesson for this song

chords

Winner

Key:  D More
Winner Key AA
Winner Key A#A#
Winner Key BB
Winner Key CC(one step down)
Winner Key C#C#(half step down)
Winner Key DD(original key)
Winner Key D#D#(half step up)
Winner Key EE(one step up)
Winner Key FF
Winner Key F#F#
Winner Key GG
Winner Key G#G#
	  		Intro 

e|---------| 
B|---------| 
G|---------| 
D|------0--|  x8 
A|-11-11---| 
E|---------| 


verse 1 

e|--------------------| 
B|--------------------| 
G|--------------------| 
D|--------------------| 
A|-5?--6--5--6---7--7-| 
E|--------------------| 
    I?m a little loser 

e|--------------------| 
B|--------------------| 
G|--------------------| 
D|--------------------| 
A|-5---6----6--7--7---| 
E|--------------------| 
    I?m such a loser 

e|--------------------| 
B|--------------------| 
G|--------------------| 
D|--------------------| 
A|-5-----6--6--7---7--| 
E|--------------------| 
    Man, I?m a loser 

e|--------------------| 
B|--------------------| 
G|--------------------| 
D|--------------------| 
A|-5---6--5---6---7---| 
E|--------------------| 
    And I wet the bed 

e|---------------------| 
B|---------------------| 
G|---------------------| 
D|---------------------| 
A|-5---6--5----6---7?7?| 
E|--------------------| 
    I?m a freaking loser 

e|--------------------| 
B|--------------------| 
G|--------------------| 
D|--------------------| 
A|-5----6--6--7?7-----| 
E|--------------------| 
    Bro,I?m a loser 

e|--------------------| 
B|--------------------| 
G|--------------------| 
D|--------------------| 
A|-5---6----5--7--7---| 
E|--------------------| 
    I?m such a loseeeeeeer 

e|--------------------| 
B|--------------------| 
G|--------------------| 
D|--------------------| 
A|-5?--6--5--6---7--7-| 
E|--------------------| 
    I?m a little loser 

e|--------------------| 
B|--------------------| 
G|--------------------| 
D|--------------------| 
A|-5---6----6--7--7---| 
E|--------------------| 
    I?m such a loser 

e|--------------------| 
B|--------------------| 
G|--------------------| 
D|--------------------| 
A|-5-----6--6--7---7--| 
E|--------------------| 
    Man, I?m a loser 

e|--------------------| 
B|--------------------| 
G|--------------------| 
D|--------------------| 
A|-5---6--5---6---7---| 
E|--------------------| 
    And I wet the bed 

e|---------------------| 
B|---------------------| 
G|---------------------| 
D|---------------------| 
A|-5---6--5----6---7?7?| 
E|--------------------| 
    I?m a freaking loser 

e|--------------------| 
B|--------------------| 
G|--------------------| 
D|--------------------| 
A|-5----6--6--7?7-----| 
E|--------------------| 
    Bro,I?m a loser 

e|--------------------| 
B|--------------------| 
G|--------------------| 
D|--------------------| 
A|-5---6----5--7--7---| 
E|--------------------| 
    I?m such a loseeeeeeer 


Interlude 

e|--------| 
B|--------| 
G|--------| 
D|------0-|  x4 
A|-11-11--| 
E|--------| 


verse 2 

e|---------------------------------| 
B|---------------------------------| 
G|---------------------------------| 
D|----------5----------------------| 
A|-5--6--6-------6---6----5-----6--| 
E|---------------------------------| 
    So many hours all the time, yo 

e|-------------------------------------------| 
B|-------------------------------------------| 
G|-------------------------------------------| 
D|-------------------------------------------| 
A|--5--5-5--5---6----------5----5---5--6-----| 
E|-------------------------------------------| 
    All I do is Hut (Hut). Take another L (L) 

e|---------------------------------------------------| 
B|---------------------------------------------------| 
G|---------------------------------------------------| 
D|---------------------------------------------------| 
A|--5----5---5---5--6----------5-5---5---5--6--------| 
E|---------------------------------------------------| 
    Wake up, wet my bed (bed). Do it all again (yeah) 

e|---------------------------------------------------| 
B|---------------------------------------------------| 
G|---------------------------------------------------| 
D|---------------------------------------------------| 
A|--5----5----5--5---6-----------5--5---5----5---6---| 
E|---------------------------------------------------| 
    You know that I fell (fell), and I don?t get up (up) 

e|-----------------------------------------| 
B|-----------------------------------------| 
G|-----------------------------------------| 
D|-----------------------------------------| 
A|-5--6----5----6--7----7----7----7----7---| 
E|-----------------------------------------| 
    I just take it out, out, out, out, out. 

e|--------------------------------| 
B|--------------------------------| 
G|--------------------------------| 
D|--------------------------------| 
A|-5--6----5----6-7--7--7--7--7---| 
E|--------------------------------| 
    I just take an L, L, L, L, L. 


e|----------------------------------------------| 
B|----------------------------------------------| 
G|----------------------------------------------| 
D|----------------------------------------------| 
A|----------------------------------------------| 
E|------------------------------------------11--| 

e|----------------------------------------------| 
B|----------------------------------------------| 
G|----------------------------------------------| 
D|----------------------------------------------| 
A|-9--9----9-9----11---9---9---9--9---11--------| 
E|----------------------------------------------| 

    I can?t even spell, I can?t even spell, well 

e|----------------------------------------------| 
B|----------------------------------------------| 
G|----------------------------------------------| 
D|----------------------------------------------| 
A|----------------------------------------------| 
E|-----------------11?11------------------------| 

e|----------------------------------------------| 
B|----------------------------------------------| 
G|----------------------------------------------| 
D|----------------------------------------------| 
A|-9--9----9---11--------9-9--9----9-----11-----| 
E|----------------------------------------------| 
    I can spell L, but I probably still fail. 

e|----------------------------------------------| 
B|----------------------------------------------| 
G|----------------------------------------------| 
D|----------------------------------------------| 
A|----------------------------------------------| 
E|------------------------------------------11--| 

e|----------------------------------------------| 
B|----------------------------------------------| 
G|----------------------------------------------| 
D|----------------------------------------------| 
A|-9--9-----9-----11---9--9-----9-----11--------| 
E|----------------------------------------------| 
    I can?t even spell, I can?t even spell, well 

e|----------------------------------------------| 
B|----------------------------------------------| 
G|----------------------------------------------| 
D|----------------------------------------------| 
A|----------------------------------------------| 
E|-----------------11-11------------------------| 

e|----------------------------------------------| 
B|----------------------------------------------| 
G|----------------------------------------------| 
D|----------------------------------------------| 
A|-9--9----9---11--------9?9--9----9----11------| 
E|----------------------------------------------| 
    I can spell L, but I probably still fail, say, 

e|----------------------------------------------| 
B|----------------------------------------------| 
G|----------------------------------------------| 
D|----------------------------------------------| 
A|--12--12--12?12?14---------12--12--12-12?14---| 
E|----------------------------------------------| 
    Yeah I took an L (yeah), Yeah I took an L (yeah), 

e|----------------------------------------------| 
B|----------------------------------------------| 
G|----------------------------------------------| 
D|----------------------------------------------| 
A|----------------------------------------------| 
E|-------------------14--14?14------------------| 

e|-------------------------------------------------| 
B|-------------------------------------------------| 
B|-------------------------------------------------| 
D|-------------------------------------------------| 
A|--12--12--12?12?14------------12?12---12?12--14--| 
E|----------------------------------------------| 
    Yeah I took an L, I?m gonna get back in my fail. 

e|----------------------------------------------| 
B|----------------------------------------------| 
G|----------------------------------------------| 
D|----------------------------------------------| 
A|--12--12--12?12?14---------12--12--12-12?14---| 
E|----------------------------------------------| 
    Yeah I took an L (yeah), Yeah I took an L (yeah), 

e|----------------------------------------------| 
B|----------------------------------------------| 
G|----------------------------------------------| 
D|----------------------------------------------| 
A|----------------------------------------------| 
E|-------------------14--14?14------------------| 

e|-------------------------------------------------| 
B|-------------------------------------------------| 
G|-------------------------------------------------| 
D|-------------------------------------------------| 
A|--12--12--12?12?14------------12?12---12?12--14--| 
E|-------------------------------------------------| 
    Yeah I took am L, I?m gonna get back in my game. 


verse 3 
e|-------------------------------------------------------| 
B|-------------------------------------------------------| 
G|-------------------------------------------------------| 
D|-------------------------------------------------------| 
A|-7---8----7---8---8---9------7----8--------7---8---9---| 
E|-------------------------------------------------------| 
    I moved back in the day, before everyone knew my name 

e|-----------------------------------------------------------| 
B|-----------------------------------------------------------| 
G|-----------------------------------------------------------| 
D|-----------------------------------------------------------| 
A|-7-----8-----7----8---9-------7----8----9----7----8--9-----| 
E|-----------------------------------------------------------| 
    I just woke up every day, putting at work, what can I say 

e|-------------------------------------------------------------| 
B|-------------------------------------------------------------| 
G|-------------------------------------------------------------| 
D|-------------------------------------------------------------| 
A|-7---7----7-----7----7----7------7---7--7--7---7---7--7---7--| 
E|-------------------------------------------------------------| 
    I don?t have times for those things so I put them in a grave 

e|----------------------------------------------| 
B|----------------------------------------------| 
G|----------------------------------------------| 
D|----------------------------------------------| 
A|--7--7?7----7-----7---7---7-7--7----7---------| 
E|----------------------------------------------| 
    Everyone hates when you wanna be great 

e|-------------------------------------------------------| 
B|-------------------------------------------------------| 
G|-------------------------------------------------------| 
D|-------------------------------------------------------| 
A|-7--7----7?7--7---7-----7---7----7?7--7---7---7-----7--| 
E|-------------------------------------------------------| 
    I took an L but that?s ok, I?m about to win this race 


e|----------------------------| 
B|----------------------------| 
G|----------------------------| 
D|----------------------------| 
A|--7-7----7----7----7---7----| 
E|----------------------------| 
    Gotta switch up that pace, 

e|----------------------------------------------------------------------| 
B|----------------------------------------------------------------------| 
G|----------------------------------------------------------------------| 
D|----------------------------------------------------------------------| 
A|--7---7--7----7----7---7----8---9----7-----8--9----7-8---9---7-8---9--| 
E|----------------------------------------------------------------------| 
    You already know I?m about to win, about to win, going in, going in 

e|----------------------------------------------| 
B|----------------------------------------------| 
G|----------------------------------------------| 
D|----------------------------------------------| 
A|--7----8----9--9--10-----7----8---9---9--10---| 
E|----------------------------------------------| 
    Hold stop and a grub, Don?t bail on he scrub, 

e|----------------------------------------------| 
B|----------------------------------------------| 
G|----------------------------------------------| 
D|----------------------------------------------| 
A|--7--8----9---9--10---7--8----9---9---10---10-| 
E|----------------------------------------------| 
    Two L?s make a dub, no time for the club, 

e|-------------------------------| 
B|-------------------------------| 
G|-------------------------------| 
D|-------------------------------| 
A|--7------7---8-----8--7---7?9--| 
E|-------------------------------| 
    Cause? I?m about to run it up 


Interlude 

e|--------| 
B|--------| 
G|--------| 
D|------0?|  x4 
A|-11?11--| 
E|--------| 


verse 3 

e|----------------------------------------------| 
B|----------------------------------------------| 
G|----------------------------------------------| 
D|----------------------------------------------| 
A|----------------------------------------------| 
E|-5--5---5-----5--4?0?5---5--5--5--5--4---0----| 
    Yo my names Big D, once an L to achieve 

e|-------------------------------------------------| 
B|-------------------------------------------------| 
G|-------------------------------------------------| 
D|-------------------------------------------------| 
A|-------------------------------------------------| 
E|--5----5----5-----5----5?0?5---5---5----5--4---0?| 
    Yeah your girl wants me, nah I?m just kidding 

e|----------------------------------------------| 
B|----------------------------------------------| 
G|----------------------------------------------| 
D|----------------------------------------------| 
A|----------------------------------------------| 
E|--5--5---5---5---4?0--5--5---5---5--4---0-----| 
    Focused on my team, now we all winning 

e|---------------------------------| 
B|---------------------------------| 
G|---------------------------------| 
D|---------------------------------| 
A|---------------------------------| 
E|-5--5------6----------7--7---6---| 
    I don?t even wet my bed no more 

e|----------------------------------------| 
B|----------------------------------------| 
G|----------------------------------------| 
D|----------------------------------------| 
A|----------------------------------------| 
E|--5----5--6--------------7----7-----6---| 
    Down by a lot but I flipped that score 

e|-----------------------------------------| 
B|-----------------------------------------| 
G|-----------------------------------------| 
D|-----------------------------------------| 
A|-----------------------------------------| 
E|---5------5-----6----------7---7-----6---| 
    Flipped that script and took that risk 

e|-------------------------------------------| 
B|-------------------------------------------| 
G|-------------------------------------------| 
D|-------------------------------------------| 
A|-------------------------------------------| 
E|---5-----5----6------------7-----7-----6---| 
    Can?t have kids cause? I ain?t that rich 

e|-------------------------------------------| 
B|-------------------------------------------| 
G|-------------------------------------------| 
D|-------------------------------------------| 
A|-------------------------------------------| 
E|---5----5--6-----------------7---7-----6---| 
    But if I had one wish I?d take your chick, 

e|---------------------------| 
B|---------------------------| 
G|---------------------------| 
D|---------------------------| 
A|---------------------------| 
E|-5---6----6--7-6?7---8-----| 
    Oh wait, I already did... 


verse 4 

e|---------------------------| 
B|---------------------------| 
G|---------------------------| 
D|---------------------------| 
A|---------------------------| 
E|--2---2---3-----4--4---3---| 
    Already did, Already did, 

e|---------------------------| 
B|---------------------------| 
G|---------------------------| 
D|---------------------------| 
A|---------------------------| 
E|--2---2---3---4--4---3-----| 
    Always win, Always win, 

e|---------------------------| 
B|---------------------------| 
G|---------------------------| 
D|---------------------------| 
A|---------------------------| 
E|--2---2---3-----4--4---3---| 
    Already did, Already did, 

e|-------------------------| 
B|-------------------------| 
G|-------------------------| 
D|---------------------6---| 
A|-------------------------| 
E|--2--2---3---7--7--------| 
    I just win, I just win 


Verse 5 

e|-----------------------------------------------| 
B|-----------------------------------------------| 
G|-----------------------------------------------| 
D|--12--12-12---12--13--13--13?14?14--14--13?13--| 
A|-----------------------------------------------| 
E|----------------------------------------------?| 
    Yeah I took some L?s but I got up when I fell 

e|------------------------------------------------| 
B|------------------------------------------------| 
G|------------------------------------------------| 
D|--12--12-12---12----13--13--13----14?14--13--13-| 
A|------------------------------------------------| 
E|-----------------------------------------------?| 
    Maybe I can spell, but at least I?m not in jail 

e|----------------------------------------------------| 
B|----------------------------------------------------| 
G|----------------------------------------------------| 
D|--12--12----12---12--13----13---13---14--14--13--13?| 
A|----------------------------------------------------| 
E|---------------------------------------------------?| 
    They just think I?m dumb, but, I?m the one who won 

e|----------------------------------------------------| 
B|----------------------------------------------------| 
G|----------------------------------------------------| 
D|-12--12-12---12--13--13----13--14--14--13--13-------| 
A|----------------------------------------------------| 
E|---------------------------------------------------?| 
    I?m the one who won, yeah, I?m the one who won, yeah 

e|-----------------------------------------------| 
B|-----------------------------------------------| 
G|-----------------------------------------------| 
D|--12--12-12---12--13--13--13?14?14--14--13?13--| 
A|-----------------------------------------------| 
E|----------------------------------------------?| 
    Yeah I took some L?s but I got up when I fell 

e|------------------------------------------------| 
B|------------------------------------------------| 
G|------------------------------------------------| 
D|--12--12-12---12----13--13--13----14?14--13--13-| 
A|------------------------------------------------| 
E|-----------------------------------------------?| 
    Maybe I can spell, but at least I?m not in jail 

e|----------------------------------------------------| 
B|----------------------------------------------------| 
G|----------------------------------------------------| 
D|--12--12----12---12--13----13---13---14--14--13--13?| 
A|----------------------------------------------------| 
E|---------------------------------------------------?| 
    They just think I?m dumb, but, I?m the one who won 

e|----------------------------------------------------| 
B|----------------------------------------------------| 
G|----------------------------------------------------| 
D|-12--12-12---12--13--13----13--14--14--13--13-------| 
A|----------------------------------------------------| 
E|---------------------------------------------------?| 
    I?m the one who won, yeah, I?m the one who won, yeah 


Outro 

e|---------| 
B|---------| 
G|---------| 
D|-------0?|  x8 then fade 
A|--11?11--| 
E|---------| 
		  

Full key step upFull key step up
Half key step upHalf key step up
Half key step downHalf key step down
Full key step downFull key step down
hide glossary

See also:

tabs Deep Purple - Deep Purple - Smoke On The Water tabs Ira! - Dias de Luta (Intro - Acustico Mtv) tabs Deep Purple - Smoke on The Water (ver.3) tabs Deep Purple - Into The Fire tabs Deep Purple - When a Blind man cries tabs Deep Purple - Highway Star
e-chords

Other versions:

tabs Ireland Boys - Winner tabs Roald - Winner The Game tabs Quiet Riot - Winners Take All
auto scroll beats size up size down change color hide chords drawings
tab show chords e-chords YouTube Clip e-chords hide all tabs e-chords go to top tab

share