Iration

home > Iration

Falling Tab

Iration

Difficulty: nolevelnolevel

by gustsilva

tuner correct add songbook print version text version save to e-mail
chordsukulelecavacokeyboardtabbassdrumsharmonicsflute Guitar Pro
chords

Falling

  		
Solo 

e|---------------|-------------|----------5-----|------15-12------------------------| 
B|---------------|---------5---|---5----8---8-5-|-5/12-------15-12\10-8-------------| 
G|---------------|-------7---7-|-7---7----------|-----------------------9-----------| 
D|-------5-7-5---|-5h7-5-------|----------------|-----------------------------------| 
A|-5h7-5-------7-|-------------|----------------|-----------------------------------| 
E|---------------|-------------|----------------|-----------------------------------| 

e|-17-15-15-12---|-17-17-15-12-|-12-12-10---------|---------------------------------| 
B|-17-15-15-12---|-17-17-15-12-|-12-12-10-12p10---|-----------------------------7-8-| 
G|---------------|-------------|---------------12-|-------------------------7h9-----| 
D|---------------|-------------|------------------|------5-7-5----------7h9---------| 
A|---------------|-------------|------------------|-5h7-5------7-5/7-10-------------| 
E|---------------|-------------|------------------|---------------------------------| 
 
	  

Search Paypal
auto scroll beats size up size down change color hide chords drawings
tab show chords e-chords YouTube Clip e-chords hide all tabs e-chords go to top tab