Ira!

O Girassol (intro)

Ira!

tabs Easy easy

by  PERETTO

save to print version add songbook text version e-mail correct tuner
chordsukulelecavacokeyboardtabbassdrumsharmonicaflute Guitar Pro
close

there isn't a video lesson for this song

chords

O Girassol (intro)

	  		intro: 
 
  A                 G7                F                 A 
e|-----------------|-----------------|-----------------|-----------------| 
B|---5-5-5---5-5-5-|---3-3-3---3-3-3-|---1-1-1---1-1-1-|---5-5-5---5-5-5-| 
G|---6-6-6---6-6-6-|---4-4-4---4-4-4-|---2-2-2---2-2-2-|---6-6-6---6-6-6-| 
D|-7-------7-------|-3-------3-------|-3-------3-------|-7-------7-------| 
A|-----------------|-----------------|-----------------|-----------------| 
E|-----------------|-----------------|-----------------|-----------------| 
 
 
  A                 D                 E                 E4 
e|-----------------|-----------------|-----------------|--------------------------------------------------| 
B|---5-5-5---5-5-5-|---7-7-7---7-7-7-|---9-9-9---9-9-9-|----10-10-10----10-10-10-----10-10-10----10-10-10-| 
G|---6-6-6---6-6-6-|---7-7-7---7-7-7-|---9-9-9---9-9-9-|----9--9--9-----9--9--9------9--9--9-----9--9--9--| 
D|-7-------7-------|-7-------7-------|-9-------9-------|-11----------11-----------11----------11----------| 
A|-----------------|-----------------|-----------------|--------------------------------------------------| 
E|-----------------|-----------------|-----------------|--------------------------------------------------| 
                                                                                                          (entrar direto no verso) 
 
NOTA: (este dedilhado é tocado sem palheta) 
 
 
 
____________________________________________________________________________________________________ 
 
 
 
 

		  

Full key step upFull key step up
Half key step upHalf key step up
Half key step downHalf key step down
Full key step downFull key step down
hide glossary

See also:

tabs Legião Urbana - A Ordem Dos Templários tabs Engenheiros do Hawaii - Prá Ser Sincero tabs Engenheiros do Hawaii - Refrão de Bolero (Acústico MTV) tabs Legião Urbana - Geração Coca-Cola tabs Raimundos - Aquela tabs Jota Quest - Na Moral
e-chords

Other versions:

tabs Ira! - O Girassol (intro)
auto scroll beats size up size down change color hide chords drawings
tab show chords e-chords YouTube Clip e-chords hide all tabs e-chords go to top tab

share