Ira!

Núcleo Base ( Acústico MTV)

Ira!

tabs Expert expert

by  TIJOLO ELETRICO

save to print version add songbook text version e-mail correct tuner
chordsukulelecavacokeyboardtabbassdrumsharmonicaflute Guitar Pro
close

there isn't a video lesson for this song

chords

Núcleo Base ( Acústico MTV)

	  		NÚCLEO BASE (V. ACÚSTICO MTV) 
Tom: D 
 
INTRO:  
e|-------------------------------------------------------------0--------- 
B|-----5------2--2-2--2-2-2------5------2--2-2--2-2-2------5------2--2-2- 
G|-------6----2--2-2--1-1-1--------4----2--2-2--1-1-1--------4----2--2-2- 
D|-4/6-------0--0----2-------4/6-------0--0----2-------4/6-------0--0---- 
A|----------------------------------------------------------------------- 
E|----------------------------------------------------------------------- 
                                        E                        A  
----------------------5--5-5---7-7-7--|-7-----4----2----4---4----2---4- 
--2-2-2------5--------5--5-5---7-7-7--|---5-----5----5----5---5----5--- 
--1-1-1--------4-6----6--6-6---8-8-8--|-----4-------------------------- 
-2-------4/6--------------------------|-------------------------------- 
--------------------------------------|-------------------------------- 
---------------------5--5----7--------|-------------------------------- 
 B7               E                 A       B7 
-2/5-0--0---0--0--2---4--2---4---4---2---4--2/5-0--0--0--0--| 
------5--5---5------5------5---5-------5---------5--5--5----| 
------------------------------------------------------------| 
------------------------------------------------------------| 
------------------------------------------------------------| 
------------------------------------------------------------| 
 
   E                     A          B7         E      
e|-0-0-----------------------------------------------------------4------- 
B|-0-0-----------------------------------------7---------------5---5----- 
G|-1-1--------------------2-2--2-2---2-2-2-2-----8-6-8-------4-------4--- 
D|------------------------2-2--2-2---1-1-1-1-----------4-4h6-----------6- 
A|-----------------------0----0-----2------------------------------------ 
E|-0-0------------------------------------------------------------------- 
  Meu amor eu sinto muito, muito, muito, mas vou indo 
A        B7        E 
----------------------------| 
------------------------5---| 
-2--2-2--2-2--2--2--------4-| 
-2--2-2--1-1--1--1--4/6-----| 
0--0-----2-2--2--2----------| 
----------------------------| 
 
    A         B7         E                               A      B7 
e|----------------------------------------7-4h5p4-4---------------------- 
B|---------------------------5--------5-7-----------5-------------------- 
G|---2-2--2-2-2-2--2--2--------6--4-6-----------------4--2--2-2-2-2--2--2 
D|---2-2--2-2-1-1--1--1--4/6-----------------------------2--2-2-1-1--1--1 
A|--0----0----2-2--2--2----------------------------------0-0----2-2--2--2 
E|----------------------------------------------------------------------- 
 Pois é tarde, muito tarde e preciso ir embora 
 E 
---------| 
-----5---| 
-------4-| 
-4/6-----| 
---------| 
---------| 
 
        A         B7           E            A     B7 
e|---0---------------------------------------------------| 
B|-0-----------------------------0-0---0------0-----0----| 
G|------2-2--2-2--2-2--2--2----1-----1---1--2--2------2--| 
D|------2-2--2-2--1-1--1--1-----------------------1------| 
A|------0-0--0-0--2-2--2--2------------------------------| 
E|-------------------------------------------------------| 
 Sinto muito meu amor mas acho que já vou andando 
 
   E          A   B7     E                     A        B7       E 
e|-0-0---0-0----------0------------------------------------------0-0-| 
B|-0-0---0-0-------------5---5----7/9-9-7/9-9-------0-------0----0-0-| 
G|-1-1---1-1--------2-----4---4----------------2-2----2-2-2---2--1-1-| 
D|----------------1--------6---6---------------2-2------1-1----------| 
A|---------------------------------------------0-0------2-2----------| 
E|-0-0---0-0-----------------------------------------------------0-0-| 
 Amanhã acordo cedo e preciso ir embora 
 
            A       B7         E                A    B7         E 
e|-0----0-------------------------------------------------------0----| 
B|---0-------------------------7-5-4-5-7-5-4-5--------------------0--| 
G|-----1-----2-2-2--2-2--2--2-------------------2-2--2-2--2--2------1| 
D|-----------2-2-2--1-1--1--1-------------------2-2--1-1--1--1-------| 
A|-----------0-0-0--2-2--2--2-------------------0-0--2-2--2--2-------| 
E|-0------------------------------------------------------------0----| 
 Eu queria ter você mas acho que já vou andando    
 
        A          B7         E                   A       B7 
e|----------------------------------------------------------------| 
B|--------------------------------0---0---0---0-------0-------0---| 
G|------2-2--2--2--2-2--2--2--------1---1---1---1-2-2---2-2-2---2-| 
D|------2-2--2--2--1-1--1--1--4/6-----------------2-2-----1-1-----| 
A|------0-0--0--0--2-2--2--2----------------------0-0-----2-2-----| 
E|----------------------------------------------------------------|   
 Outro dia pode ser mas não vai dar pra ser agora. (laralá...) 
   
A       Abm      F#m         E          A 
 Eu tentei fugir     não queria me alistar 
       Abm      F#m      E            A 
 Eu quero lutar     mas não com essa farda 
A       Abm      F#m         E          A 
 Eu tentei fugir     não queria me alistar 
                B                     E 
 Eu quero lutar     mas não com essa farda 
 
SOLO: (E  A B7 )x2
   E                  A      B7 
e|-2---4---2---4---4--2---4--2/5-0---0---0---0-| 
B|---5---5---5---5------5----------5---5---5---| 
G|---------------------------------------------| 
D|---------------------------------------------| 
A|---------------------------------------------| 
E|---------------------------------------------| 
   E   (Ohohoh...)    A      B7 
e|-2---4---2---4---4--2---4--2/5-0---0---0---0-| 
B|---5---5---5---5------5----------5---5---5---| 
G|---------------------------------------------| 
D|---------------------------------------------| 
A|---------------------------------------------| 
E|---------------------------------------------| 
  
   E     A  B7  E                  A   B7                     E 
e|--------------7-7--7-7--7-7-7-7--7-6-7-6-7-6-7-6-7\6-7\6-7--0---| 
B|--------------8-8--8-8--8-8-8-8--8-8-8-8-8-8-8-8-8---8---8--0---| 
G|------------------------------------------------------------1---| 
D|------------------------------------------------------------2---| 
A|------------------------------------------------------------2---| 
E|------------------------------------------------------------0---| 
 E já esta ficando tarde e eu estou muito cansado     
 
     A         B7         E                       A  B7 E 
e|-------------------------------12-----------------------| 
B|--------------------------5------12----12---------------| 
G|---2-2--2-2--2-2--2--2------4------13-------------------| 
D|---2-2--2-2--1-1--1--1--6------------14--14-------------| 
A|---0-0--0-0--2-2--2--2---------------------14-----------| 
E|---------------------------------------------12---------| 
 Minha mente está tão cheia e estou me transbordando (eh!) 
 
   E     A        B7    E                 A       B7            E 
e|---------------------------------4-5-4------------------------------| 
B|-----------0-------0----5----5-7------------------------------------| 
G|-------2-2---2--2-2-------4-------------2--2-2--2-2--2--2-2-2-------| 
D|-------2-2------1-1---6-----------------2--2-2--1-1--1--1-1-1-------| 
A|-------0-0------2-2---------------------0-0-----2-2--2--2-2-2-------| 
E|--------------------------------------------------------------------|   
 Você pensa que sou louco mas estou só delirando 
   
  E                    A          B7          E       A       B7 
Você pensa que sou tolo mas estou só te olhando      (laralá...) 
   
A       Abm      F#m         E          A 
 Eu tentei fugir     não queria me alistar 
       Abm      F#m      E            A 
 Eu quero lutar     mas não com essa farda 
A       Abm      F#m         E          A 
 Eu tentei fugir     não queria me alistar 
                B                     E 
 Eu quero lutar     mas não com essa farda 
 
 
FINAL: (E Ebm C#m B A Abm F#m)x2 E B7 B) 
e|-7-5-4-5-7--7-5--------7-5-4-5-7-/5---0---0---0---0----7-5-4-5-7--7-5- 
B|------------------------------------5---5---5---5--------------------- 
G|---------------------------------------------------------------------- 
D|---------------------------------------------------------------------- 
A|---------------------------------------------------------------------- 
E|---------------------------------------------------------------------- 
      Mas não com essa fada!     Mas não com essa fada! 
---0-0--0---2/5-5-4-4-5-5-4-4-5-5-4-0-0-----0-0---0...--0-| 
-0----0---------------------------------4-4-----4-0.....0-| 
--------------------------------------------------1...--1-| 
--------------------------------------------------2...--2-| 
--------------------------------------------------2...--2-| 
--------------------------------------------------0...--0-| 
 Yeah!                                 Mas não! 

		  

Full key step upFull key step up
Half key step upHalf key step up
Half key step downHalf key step down
Full key step downFull key step down
hide glossary

See also:

tabs Legião Urbana - Há Tempos tabs Legião Urbana - Tempo Perdido(solo inicial ver.) tabs Nando Reis - Por onde andei tabs Cássia Eller - Malandragem (Acoustic) tabs Legião Urbana - O Teatro Dos Vampiros tabs Nando Reis - Luz do Olhos
e-chords

Other versions:

tabs Ira! - Núcleo Base ( Acústico MTV)
auto scroll beats size up size down change color hide chords drawings
tab show chords e-chords YouTube Clip e-chords hide all tabs e-chords go to top tab

share