iOTA

Schitzo

iOTA

tabs

save to print version add songbook text version e-mail correct tuner
chordsukulelecavacokeyboardtabbassdrumsharmonicaflute Guitar Pro
close

there isn't a video lesson for this song

chords

Schitzo

	  		Tuning : GGDGBD 
  
Ok, whack a slide on your pinkie finger and lets go... 
  
These are the opening/verse chords - the slide is not used for this bit - 
  
D------7--7-7----5--5-5--->12--12-12----10--10-10---- 
B------8--7-7----6--5-5--->12--12-12----11--10-10---- 
G------7--7-7----5--5-5--->12--12-12----10--10-10---- 
D------7--7-7----5--5-5--->12--12-12----10--10-10---- 
G------7--7-7----5--5-5--->12--12-12----10--10-10---- 
G------7--7-7----5--5-5--->12--12-12----10--10-10---- 
  
Then after 'living inside of me now' you play this (using the slide)- 
  
D------0-3--0-3--/5--0----3/(slide up)-- 
B------0-3--0-3--/5--0----3/------------ 
G------0-3--0-3--/5--0----3/------------ 
D------0-3--0-3--/5--0----3/------------ 
G------0-3--0-3--/5--0----3/------------ 
G------0-3--0-3--/5--0----3/------------ 
  
D------0-3--0-3--/5--0----12\(slide down) 
B------0-3--0-3--/5--0----12\------------ 
G------0-3--0-3--/5--0----12\------------ 
D------0-3--0-3--/5--0----12\------------ 
G------0-3--0-3--/5--0----12\------------ 
G------0-3--0-3--/5--0----12\------------ 
  
Repeat and then finish on  
  
D------0-3--0-3--/5~~~~/6/7-------------------- 
B------0-3--0-3--/5~~~~/6/7-------------------- 
G------0-3--0-3--/5~~~~/6/7-------------------- 
D------0-3--0-3--/5~~~~/6/7-------------------- 
G------0-3--0-3--/5~~~~/6/7-------------------- 
G------0-3--0-3--/5~~~~/6/7-------------------- 
  
He uses a lot of vibrato when the slide hits that 5th fret at the end, and then he  
slides up (don't strum) just into the next couple of frets before launching into the  
verse chords again. 
  
Then there's a verse, another slide bit, and then this - now I have to explain how to  
play these bits - you bar your index finger across the 3rd fret and hold it there while  
hammering on the 5th fret with the slide (on your pinkie finger), and sliding it up to  
the 6th , and then back.  Then you just move your index finger up to the fifth and the  
seventh and do the same pattern... 
  
    'Ohhhhhhhhhh...' 
D----3-5/6--6\5----3-5/6--6\5------------ 
B----3-5/6--6\5----3-5/6--6\5------------ 
G----3-5/6--6\5----3-5/6--6\5------------ 
D----3-5/6--6\5----3-5/6--6\5------------ 
G----3-5/6--6\5----3-5/6--6\5------------ 
G----3-5/6--6\5----3-5/6--6\5------------ 
  
   '...oooh...		  ...I should be...'	 
D----3-5/6--6\5----3-5/6--6\5------------ 
B----3-5/6--6\5----3-5/6--6\5------------ 
G----3-5/6--6\5----3-5/6--6\5------------ 
D----3-5/6--6\5----3-5/6--6\5------------ 
G----3-5/6--6\5----3-5/6--6\5------------ 
G----3-5/6--6\5----3-5/6--6\5------------ 
  
   '...yoooooooou...' 
D----5-7/8--8\7----5-7/8--8\7------------ 
B----5-7/8--8\7----5-7/8--8\7------------ 
G----5-7/8--8\7----5-7/8--8\7------------ 
D----5-7/8--8\7----5-7/8--8\7------------ 
G----5-7/8--8\7----5-7/8--8\7------------ 
G----5-7/8--8\7----5-7/8--8\7------------ 
  
   '...ooooo...	    ...and you should be...' 
D----5-7/8--8\7----5-7/8--8\7------------ 
B----5-7/8--8\7----5-7/8--8\7------------ 
G----5-7/8--8\7----5-7/8--8\7------------ 
D----5-7/8--8\7----5-7/8--8\7------------ 
G----5-7/8--8\7----5-7/8--8\7------------ 
G----5-7/8--8\7----5-7/8--8\7------------ 
  
   '...meeeee...			...eee...' 
D----7-9/10--10\9----7-9/10--10\9-------- 
B----7-9/10--10\9----7-9/10--10\9-------- 
G----7-9/10--10\9----7-9/10--10\9-------- 
D----7-9/10--10\9----7-9/10--10\9-------- 
G----7-9/10--10\9----7-9/10--10\9-------- 
G----7-9/10--10\9----7-9/10--10\9-------- 
  
      '...and then you could seeeeee...' 
D----7-9/10--10\9----7-9/10--10\9-------- 
B----7-9/10--10\9----7-9/10--10\9-------- 
G----7-9/10--10\9----7-9/10--10\9-------- 
D----7-9/10--10\9----7-9/10--10\9-------- 
G----7-9/10--10\9----7-9/10--10\9-------- 
G----7-9/10--10\9----7-9/10--10\9-------- 
  
     '...that it ain't no fun taking...' 
D----7-9/10--10\9----7-9/10--10\9-------- 
B----7-9/10--10\9----7-9/10--10\9-------- 
G----7-9/10--10\9----7-9/10--10\9-------- 
D----7-9/10--10\9----7-9/10--10\9-------- 
G----7-9/10--10\9----7-9/10--10\9-------- 
G----7-9/10--10\9----7-9/10--10\9-------- 
  
   '...salt from   the  seeeeeeeeeaa...' 
D----7-9/10--10\9----/12~~~~~~~------------- 
B----7-9/10--10\9----/12~~~~~~~------------- 
G----7-9/10--10\9----/12~~~~~~~------------- 
D----7-9/10--10\9----/12~~~~~~~------------- 
G----7-9/10--10\9----/12~~~~~~~------------- 
G----7-9/10--10\9----/12~~~~~~~------------- 
  
Tabbed by Drew - [email protected] 
 
 

		  

See also:

tabs The Beautiful Girls - Blackbird tabs Joss Stone - Super Duper Love tabs INXS - Heaven Sent tabs Beaverloop - Funkywrench tabs Blackman Bertie - Favourite Jeans tabs Baby Animals - Don't Tell Me What To Do
e-chords

Other versions:

tabs iOTA - Schitzo
auto scroll beats size up size down change color hide chords drawings
tab show chords e-chords YouTube Clip e-chords hide all tabs e-chords go to top tab

share