iOTA

Melbourne Summer

iOTA

tabs

save to print version add songbook text version e-mail correct tuner
chordsukulelecavacokeyboardtabbassdrumsharmonicaflute Guitar Pro
close

there isn't a video lesson for this song

chords

Melbourne Summer

	  		Tuning : Standard EADGBE 
  
Thanks to Peter and Marcus for their help with this one! 
  
Verse: 
 
E-----------------0-0-0-0-0-0-0--------------0-0-0-0-0-0-0------- 
B-----------------0-0-0-0-0-0-0--------------0-0-0-0-0-0-0------- 
G-----3-3--3--3---3-3-3-3-3-3-3---3-3--3--3--3-3-3-3-3-3-3------- 
D-----4-4--4--4---4-4-4-4-4-4-4---4-4--4--4--4-4-4-4-4-4-4------- 
A-----4-4--4--4--(4)--------------4-4--4--4-(4)------------------ 
E-----0h2--2--2--(0)--------------0h2--2--2-(0)------------------ 
  
 
Chorus: 
 
  'need it I want it, need it I want it...' 
E---------------------------------------------- 
B---------------------------------------------- 
G---------------------------------------------- 
D----------------------9-9-9-9-9-9-9-9-9------- 
A---2-2-2-2-2-2-2-2-2-/7-7-7-7-7-7-7-7-7------- 
E---0-0-0-0-0-0-0-0-0--0-0-0-0-0-0-0-0-0------- 
    
    'need it I want it, need it I want iii-it 
E----------------------------------------------------0-0-0-- 
B----------------------------------------------------0-0-3-- 
G-------------------------------------------3-3-3-3--3-3-3-etc 
D-----9-9-9-9-9-9-9-9----9-9-9-9-9-9-9-9-9--4-4-4-4--4-4-4-- 
A---2/7-7-7-7-7-7-7-7--2/7-7-7-7-7-7-7-7-7--4-4-4-4-(4)----- 
E---0-0-0-0-0-0-0-0-0--0-0-0-0-0-0-0-0-0-0--0h2-2-2-(0)----- 
  
After the next verse comes this bit - easy strumming - 
  
    'Through the window the street lightly buzzes...' 
E----2----------------------0--------------------- 
B----2----------------------0--------------------- 
G----3----------------------1--------------------- 
D----4----------------------2--------------------- 
A----4----------------------2--------------------- 
E----2----------------------0--------------------- 
  
    'and my colourful hair gets the fuzzes...'  
E----2-----------------0--------------------- 
B----2-----------------0--------------------- 
G----3-----------------1--------------------- 
D----4-----------------2--------------------- 
A----4-----------------2--------------------- 
E----2-----------------0--------------------- 
  
Play the same for 'Through the window\Melbourne summer is cloudy and alright' and then -  
  
    'still my clue has all gone have you seen it...' 
E----2----------------------5---------------------- 
B----2----------------------5---------------------- 
G----3----------------------6---------------------- 
D----4----------------------7---------------------- 
A----4----------------------7---------------------- 
E----2----------------------5---------------------- 
  
    'been in between it, wriggled upon it...' 
E-----7-------------------10---------------- 
B-----7-------------------10---------------- 
G-----8-------------------11---------------- 
D-----9-------------------12---------------- 
A-----9-------------------12---------------- 
E-----7-------------------10---------------- 
  
    'need it I want iiiiii-it' 
E--------------------------------------- 
B--------------------------------------- 
G---------------------------3-3-3-3----- 
D------9-9-9-9-9-9-9-9-9-9--4-4-4-4----- 
A----2/7-7-7-7-7-7-7-7-7-7--4-4-4-4----- 
E----0-0-0-0-0-0-0-0-0-0-0--0h2-2-2----- 
  
Then another verse and then after the last 'need it I want iiittt' you go into F# and E  
chords again like so -  
  
   'iiit...          and I need iii-it...' 
E------2---------0-------------------2--- 
B------2---------0-------------------2--- 
G------3---------1-------------------3--- 
D------4---------2-------------------4--- 
A------4---------2-------------------4--- 
E------2---------0-------------------2--- 
   		 
'and I want iii-it...' 
E----0-----------------------2------- 
B----0-----------------------2------- 
G----1-----------------------3------- 
D----2-----------------------4------- 
A----2-----------------------4------- 
E----0-----------------------2------- 
  
And so on. 
  
One bit to go.  The ending: 
  
E------------------------------------------------------- 
B------------------------------------------------------- 
G----3-3-3-3-3-3-3-3-3-3-3-3-3-3-3-3-3-3-3-3-3-3-3-3---- 
D----4-4-4-4-4-4-4-4-4-4-4-4-4-4-4-4-4-4-4-4-4-4-4-4---- 
A----4-4-4-4-4-4-4-4-4-4-4-4-4-4-4-4-4-4-4-4-4-4-4-4---- 
E----0h2-0h2-0h2-0h2-0h2-0h2-0h2-0h2-0h2-0h2-0h2-0h2---- 
  
And repeat until the end. 
  
Tabbed by Drew - [email protected] 
  
 
 

		  

Full key step upFull key step up
Half key step upHalf key step up
Half key step downHalf key step down
Full key step downFull key step down
hide glossary

See also:

tabs The Beautiful Girls - Blackbird tabs Joss Stone - Super Duper Love tabs INXS - Heaven Sent tabs Beaverloop - Funkywrench tabs Blackman Bertie - Favourite Jeans tabs Baby Animals - Don't Tell Me What To Do
e-chords

Other versions:

tabs iOTA - Melbourne Summer
auto scroll beats size up size down change color hide chords drawings
tab show chords e-chords YouTube Clip e-chords hide all tabs e-chords go to top tab

share