iOTA

Home Song

iOTA

tabs

save to print version add songbook text version e-mail correct tuner
chordsukulelecavacokeyboardtabbassdrumsharmonicaflute Guitar Pro
close

there isn't a video lesson for this song

chords

Home Song

	  		Tuning : AADGBE 
  
This is the intro.  The opening notes are played four times and then the upward  
pick is added... 
  
E---------------------|------0---------------- 
B---------------------|---------0------------- 
G---------------------|------------6---------- 
D---------------------|---------------7------- 
A-------0-----0-------|----------------------- 
A----0-----0----------|----------------------- 
  
Then throughout the rest of the opening/verse just strum the chord (006700), throwing in  
that upward pick. 
  
Then: 
  
   'how it feels like,  ho...    ...ome to me' 
E----------12----10-----10------x-------- 
B----------12----10-----10-----10-------- 
G----------12----11-----10-----10-------- 
D----------12----12-----10-----11-------- 
A-----------0-----0------0-----12-------- 
A-----------0-----0------0------0-------- 
  
2nd Verse strumming pattern: 
  
E--------0-0--0--0--0--0-0---------- 
B--------0-0--0--0--0--0-0----------    
G--------5/6--6--9--6--5/6----------                
D--------6/7--7--7--7--6/7----------                
A--------0-0--0--0--0--0-0----------           
A--------0-0--0--0--0--0-0---------- 
  
At the end of the second  'feels like home to me' chorus there is a slow bit as he sings an  
extended 'meeeeeeeeee' which consists of these chords... 
  
E--------x------------x----x----x------ 
B--------x------------x----x----x------     
G--------7------------7----9----6------	 
D--------7------------7----9----6------ 
A--------5------------5----7----4------ 
A--------5------------5----7----4------ 
 
This is the 'its such a dry condition' bit: 
  
E-----0-0---0---0---0---0-0---------x----12---10------ 
B-----0-0---0---0---0---0-0---------x----12---10------    
G-----5/6---6---9---6---5/6---------7----12---11------                
D-----6/7---7---7---7---6/7---------7----12---12------                
A-----0-0---0---0---0---0-0---------5-----0----0------           
A-----0-0---0---0---0---0-0---------5----------------- 
  
When he goes into the 'and when it went away' bit, start playing these chords again. 
  
E----------12----10-----10------x-------- 
B----------12----10-----10-----10-------- 
G----------12----11-----10-----10-------- 
D----------12----12-----10-----11-------- 
A-----------0-----0------0-----12-------- 
A-----------0-----0------0------0-------- 
  
Then finally the outro.  You just pick those intro notes again (3 times) and then on the fourth  
time play this variation... 
  
E--------0---------------0------ 
B-----------0------------0------ 
G--------------5---------6------ 
D-----------------6------7------ 
A------------------------0------ 
A------------------------0------ 
  
Tabbed by Drew - [email protected] 
 
 

		  

See also:

tabs The Beautiful Girls - Blackbird tabs Joss Stone - Super Duper Love tabs INXS - Heaven Sent tabs Beaverloop - Funkywrench tabs Blackman Bertie - Favourite Jeans tabs Baby Animals - Don't Tell Me What To Do
e-chords

Other versions:

tabs iOTA - Home Song
auto scroll beats size up size down change color hide chords drawings
tab show chords e-chords YouTube Clip e-chords hide all tabs e-chords go to top tab

share