iOTA

God's Eyes

iOTA

tabs Beginner beginner

save to print version add songbook text version e-mail correct tuner
chordsukulelecavacokeyboardtabbassdrumsharmonicaflute Guitar Pro
close

there isn't a video lesson for this song

chords

God's Eyes

	  		Tuning : GGDGBE 
  
Intro:  
  
E------3------------------3--3--3----3--3--3----3-3-3---3----- 
B--------3----------------3--3--3----3--3--3----3-3-3---3----- 
G----------0--------------0--0--0----0--0--0----0-0-0---0----- 
D------------0------------3--3--3----2--2--2----2-2-2---0----- 
G--------------0----------0--0--0----0--0--0----0-0-0---0----- 
G----------------0--------0--0--0----0--0--0----0-0-0-0-0----- 
  
Play that strumming bit 3 times.  Then play the chord (000033) over and over slowly  
building up until the main progression starts: 
  
E--------3--3--3--3--3------3--3--3--3--3--------- 
B--------3--3--3--3--3------3--3--3--3--3--------- 
G--------0--0--0--0--0------0--0--0--0--0--------- 
D--------3--2--0--0--0------3--2--0--0--0--------- 
G--------0--0--3--2--0------0--0--3--2--0--------- 
G--------0--0--0--0--0------0--0--0--0--0--------- 
  
Play that until the singing comes in, at which point the strumming changes to this - 
  
  ' Stand back you, its my time' 
E-----3----3--------------3--3--3--3--3----------- 
B-----3----3--------------3--3--3--3--3----------- 
G-----0----0----pause-----0--0--0--0--0----------- 
D-----3----2--------------3--2--0--0--0----------- 
G-----0----0--------------0--0--3--2--0----------- 
G-----0----0--------------0--0--0--0--0----------- 
  
Next bit: 
  
   ' I ain't no sheep, and you ain't no wolverine...' 
E-----2---------------------5-----------2--------- 
B-----3---------------------6-----------3--------- 
G-----2---------------------5-----------2--------- 
D-----0---------------------0-----------0--------- 
G-----0---------------------0-----------0--------- 
G-----0---------------------0-----------0--------- 
  
   ' ...to meeeeee...  ...eee...  ...to me yeh...'         
E--------3----------3---------3---------- 
B--------3----------3---------3---------- 
G--------0----------0---------0---------- 
D--------3----------2---------1---------- 
G--------0----------0---------0---------- 
G--------0----------0---------0---------- 
  
The 'middle bit' of this song is just the following four chords repeated - 
  
E--------3---------3---------3---------3---------- 
B--------3---------3---------3---------3---------- 
G--------0---------0---------0---------0---------- 
D--------3---------2---------1---------0---------- 
G--------0---------0---------0---------0---------- 
G--------0---------0---------0---------0---------- 
  
Tabbed by Drew - [email protected] 
 
 

		  

See also:

tabs The Beautiful Girls - Blackbird tabs Joss Stone - Super Duper Love tabs INXS - Heaven Sent tabs Beaverloop - Funkywrench tabs Blackman Bertie - Favourite Jeans tabs Baby Animals - Don't Tell Me What To Do
e-chords

Other versions:

tabs iOTA - God's Eyes
auto scroll beats size up size down change color hide chords drawings
tab show chords e-chords YouTube Clip e-chords hide all tabs e-chords go to top tab

share