iOTA

Friends

iOTA

tabs

save to print version add songbook text version e-mail correct tuner
chordsukulelecavacokeyboardtabbassdrumsharmonicaflute Guitar Pro
close

there isn't a video lesson for this song

chords

Friends

	  		Tuning : Standard EADGBE 
  
This song has a very choppy rhythm - you'll have to listen to it (or just know it really well)  
to get the rhythm right. 
  
Verse: 
             'Where would I be without these friends of mine' 
E----x---0---3--------------------------------x---0---3------ 
B----2---0---3--------------------------------2---0---3------ 
G----2---1---4--------------------------------2---1---4------ 
D----2---2---5--------------------------------2---2---5------ 
A----0---2---5--------------------------------0---2---5------ 
E----0---0---3--------------------------------0---0---3------ 
  
Those three chords repeated will get you through the intro and first verse until you get to  
the 'because I' bit...  
  
 ' because I...             ...save my flight' 
E----------0--0--3--3-------0---0---3---3------ 
B----------2--0--3--5-------2---0---3---5------ 
G----------2--1--4--5-------2---1---4---5------ 
D----------2--2--5--5-------2---2---5---5------ 
A----------0--2--5--3-------0---2---5---3------ 
E----------0--0--3--3-------0---0---3---3------ 
 
Then after 'troglodyte' you jump into this...  
  
                                           'I am a circular...'    
E----0-0-0--0-0-0--0-0-0--0-0-0-0-0---0-0--0--- 
B----0-0-0--0-0-0--0-0-0--0-0-0-0-0---0-0--0--- 
G----0-0-0--0-0-0--0-0-0--0-0-0-0-0---0-0--0--- 
D----x-x-x--x-x-x--x-x-x--0-0-0-0-0---0-0--0--- 
A----3-3-3--3-3-3--3-3-3--x-x-x-x-x---5>3--3--- 
E----5-5-5--0-0-0--5-5-5--3-3-3-5-3---3>1--1--- 
  
 '...watchdog' 
E------------0-0-0--0-0-0--0-0-0--0-0-0-0-0---0-0--0- 
B------------0-0-0--0-0-0--0-0-0--0-0-0-0-0---0-0--0- 
G------------0-0-0--0-0-0--0-0-0--0-0-0-0-0---0-0--0- 
D------------x-x-x--x-x-x--x-x-x--0-0-0-0-0---0-0--0- 
A------------3-3-3--3-3-3--3-3-3--x-x-x-x-x---5>3--3- 
E------------5-5-5--0-0-0--5-5-5--3-3-3-5-3---3>1--1- 
  
  
	  'for these friends of mine      for these..'  
E----0-0----------0-0---------------0-0------------ 
B----0-0----------0-0---------------0-0------------ 
G----0-0----------0-0---------------0-0------------ 
D----0-0----------0-0---------------0-0------------ 
A----3>5----------5>3---------------3>5------------ 
E----1>3----------3>1---------------1>3------------ 
  
And just continue sliding between those two chords until it goes back to the verse progression. 
 
  
Tabbed by Drew - [email protected] 
		  

See also:

tabs The Beautiful Girls - Blackbird tabs Joss Stone - Super Duper Love tabs INXS - Heaven Sent tabs Beaverloop - Funkywrench tabs Blackman Bertie - Favourite Jeans tabs Baby Animals - Don't Tell Me What To Do
e-chords

Other versions:

tabs iOTA - Friends tabs Joe Satriani - Friends tabs Led Zeppelin - Friends tabs TV Themes - Friends tabs Keaton Henson - Friends tabs The Mary Janes - Friends
auto scroll beats size up size down change color hide chords drawings
tab show chords e-chords YouTube Clip e-chords hide all tabs e-chords go to top tab

share