iOTA

Cool

iOTA

tabs

save to print version add songbook text version e-mail correct tuner
chordsukulelecavacokeyboardtabbassdrumsharmonicaflute Guitar Pro
close

there isn't a video lesson for this song

chords

Cool

	  		Tuning : GGDGBE 
  
This song is made up of the same picking pattern, just played at different frets  
throughout the song. 
  
It starts off with - 
  
E------------------------------------------------- 
B------------------------------------------------- 
G------------------------------------------------- 
D-------0-----------0-----------0-----------0----- 
G----------0-----------0-----------0-----------0-- 
G----0-----------0-----------0-----------0-------- 
  
The timing of the above is tricky - its not very even - you'll have to listen to the CD  
closely to pick it up. 
  
Now whilst continuing the above, you throw in the 'melody' line - 
  
E---------------------------------- 
B---------------------------------- 
G--------------0--2--4--5--4------- 
D-----0--2--3---------------------- 
G---------------------------------- 
G---------------------------------- 
 
So all together, you should be playing - 
  
E----------------------------------------------------- 
B----------------------------------------------------- 
G----------------------0-----2-----4-----5-----4------ 
D---0-----2-----3------------------------------------- 
G-----0-----0-----0------0-----0-----0-----0-----0----- 
G-------0-----0-----0------0-----0-----0-----0-----0--- 
  
Then you move up to the third fret, bar your finger right across it and pick almost the  
exact same pattern (I'm not going to include the base picking, I'll just assume you're going  
to keep doing that throughout the entire song) -  
  
E---(3)--------------------------------------- 
B---(3)----------------3--4--3---------------- 
G---(3)----------3--5-----------5------------- 
D---(3)----3--5------------------------------- 
G---(3)--------------------------------------- 
G---(3)--------------------------------------- 
 
 
Chorus: 
  
     '...Even though you slept beside me...' 
E--(5)----------------------------------- 
B--(5)--------------5--6--5-------------- 
G--(5)--------5--7-----------7----------- 
D--(5)--5--7----------------------------- 
G--(5)----------------------------------- 
G--(5)----------------------------------- 
  
    '...you don't miss me, I don't miss you...' 
E--(8)----------------(7)---------------- 
B--(8)----------------(7)---------------- 
G--(8)---------8--10--(7)--------7--9---- 
D--(8)--8--10---------(7)--7--9---------- 
G--(8)----------------(7)---------------- 
G--(8)----------------(7)---------------- 
  
   '...coooool...' 
E--(5)----------------------------------- 
B--(5)--------------5--6--5-------------- 
G--(5)--------5--7-----------7----------- 
D--(5)--5--7----------------------------- 
G--(5)----------------------------------- 
G--(5)----------------------------------- 
  
That's the whole song, except for the final one which goes - 
  
E--(0)----------------------------------------- 
B--(0)-----------------0--1--3--5--6--8--10---- 
G--(0)-----------0--2-------------------------- 
D--(0)--0--2--3-------------------------------- 
G--(0)----------------------------------------- 
G-(-0)----------------------------------------- 
  
E------------------------------------- 
B----12--13--12--10-------12^10--12--- 
G------------------------------------- 
D------------------------------------- 
G------------------------------------- 
G------------------------------------- 
  
Tabbed by Drew - [email protected] 
 
 

		  

See also:

tabs INXS - Dont change tabs Australian Crawl - Things Don't Seem tabs The Beautiful Girls - Freedom (part 2) tabs Hillsong Music Australia - In the Mystery tabs Gerling - The Deer In You tabs Boom Crash Opera - Onion Skin
e-chords

Other versions:

tabs Black Mail - Cool tabs iOTA - Cool tabs Tigers Jaw - Cool tabs Alesso - Cool tabs Soccer Mommy - Cool tabs John Lee Hooker - Cool Blues Song He Made Up
auto scroll beats size up size down change color hide chords drawings
tab show chords e-chords YouTube Clip e-chords hide all tabs e-chords go to top tab

share