iOTA

Bitter Wine

iOTA

tabs

save to print version add songbook text version e-mail correct tuner
chordsukulelecavacokeyboardtabbassdrumsharmonicaflute Guitar Pro
close

there isn't a video lesson for this song

chords

Bitter Wine

	  		Tuning : Drop D (DADGBE) 
 
Intro: 
 
E---------------------------------------------------------- 
B---------------------------------------------------------- 
G------11--11--11--14---9/11--9---9---9-------------------- 
D---------------------------------------------------------- 
A------9---9---9---12---7/9---7---7---7-------------------- 
D------0---0---0---0----0-----0---0---0-------------------- 
 
E---------------------------------------------------------- 
B---------------------------------------------------------- 
G-----11-11-11-11-9--7---7---7----3---2----2---2-2---2----- 
D-------------------------------------0--0---0-----0---0--- 
A-----9--9--9--9--7--5---5---5----1---0-------------------- 
D-----0--0--0--0--0--0---0---0----0---0-------------------- 
 
 
Verse: 
                 'I nailed my face to you'     
E---------------------------------------------------------- 
B---------------------------------------------------------- 
G-----7/9--9--7-------------------------------------------- 
D---------------------------------------------------------- 
A-----5/7--7--5-------------------------------------------- 
D-----0----0--0-------------------------------------------- 
 
               'and watched the worms crawl through' 
E---------------------------------------------------------- 
B---------------------------------------------------------- 
G-----7/9--9--7-------------------------------------------- 
D---------------------------------------------------------- 
A-----5/7--7--5-------------------------------------------- 
D-----0----0--0-------------------------------------------- 
 
               'they make a feast of me' 
E---------------------------------------------------------- 
B---------------------------------------------------------- 
G-----7/9--9--7-------------------------------------------- 
D---------------------------------------------------------- 
A-----5/7--7--5-------------------------------------------- 
D-----0----0--0-------------------------------------------- 
 
                 'but I'm easy' 
E---------------------------------------------------------- 
B---------------------------------------------------------- 
G-----7/9--9--7-------12--11--6---------------------------- 
D---------------------------------------------------------- 
A-----5/7--7--5-------10--9---4---------------------------- 
D-----0----0--0-------0---0---0---------------------------- 
 
Ok, all of the above repeats throughout the song until you get to this end bit. 
  
  'Though your hand denies my mouth to   ta - aste' 
E---------------------------------------------------------- 
B---------------------------------------------------------- 
G--------------11-------------------14---9/11--9----------- 
D---------------------------------------------------------- 
A--------------9--------------------12---7/9---7----------- 
D--------------0--------------------0----0-----0----------- 
 
  'you know its only tiiiiiime' 
E---------------------5------------------------------------ 
B---------------------5------------------------------------ 
G---------------------7------------------------------------ 
D---------------------7------------------------------------ 
A---------------------5------------------------------------ 
D---------------------5------------------------------------ 
  
  'you waste'  
E---------------------------------------------------------- 
B---------------------------------------------------------- 
G---3---2------11-11-11-11--9--7-----3---2----------------- 
D-------0--------------------------------0----------------- 
A---1---0------9--9--9--9---7--5-----1---0----------------- 
D---0---0------0--0--0--0---0--0-----0---0----------------- 
  
And repeat till the end. 
  
Tabbed by Drew - [email protected] 
 
 

		  

Full key step upFull key step up
Half key step upHalf key step up
Half key step downHalf key step down
Full key step downFull key step down
hide glossary

See also:

tabs The Beautiful Girls - Blackbird tabs Joss Stone - Super Duper Love tabs INXS - Heaven Sent tabs Beaverloop - Funkywrench tabs Blackman Bertie - Favourite Jeans tabs Baby Animals - Don't Tell Me What To Do
e-chords

Other versions:

tabs iOTA - Bitter Wine
auto scroll beats size up size down change color hide chords drawings
tab show chords e-chords YouTube Clip e-chords hide all tabs e-chords go to top tab

share