Into It Over It

Pontiac Mi

Into It Over It

tabs

by  PAULLET3

save to print version add songbook text version e-mail correct tuner
chordsukulelecavacokeyboardtabbassdrumsharmonicaflute Guitar Pro
close

there isn't a video lesson for this song

chords

Pontiac Mi

Written by Into It. Over It.

	  		------------------------------------------------------------------------------- 
                             Pontiac, MI - Into It Over It 
------------------------------------------------------------------------------- 
E-mail: [email protected] 

Tuning: D#/G/A#/D#/F/A# 

This is how Evan actually plays it.  The top two strings aren't used. so it isn't necessary 
to downtune them 

Intro/Verse  X6 
A#|---------------------------------------------------------------------------| 
F |---------------------------------------------------------------------------| 
D#|---------------------------------------------------------------------------| 
A#|-------0-------0-------0-------0-------0-------0-------0-------0-----------| 
G |---5-------5-------7-------7-------0-------0-------0-------0---------------| 
D#|-0---0---0---0---0---0---0---0---0---0---0---0---0---0---0---0-------------| 


Chorus X2 
A#|---------------------------------------------------------------------------| 
F |---------------------------------------------------------------------------| 
D#|--------------------------------------------------------2-------4----------| 
A#|-------5-------5-------7-------5--------5-------4--------------------------| 
G |---5-------5-------7-------7--------3-------3-------3-------3--------------| 
D#|-0---0---0---0---0---0---0---0----0---0---0---0---0---0---0---0------------| 


Intro/Verse  X2 
A#|---------------------------------------------------------------------------| 
F |---------------------------------------------------------------------------| 
D#|---------------------------------------------------------------------------| 
A#|-------0-------0-------0-------0-------0-------0-------0-------0-----------| 
G |---5-------5-------7-------7-------0-------0-------0-------0---------------| 
D#|-0---0---0---0---0---0---0---0---0---0---0---0---0---0---0---0-------------| 


Chorus* X1 
A#|---------------------------------------------------------------------------| 
F |---------------------------------------------------------------------------| 
D#|---------------------------------------------------------------------------| 
A#|-------5-------5-------7-------5---------12--------12--------12--------12--| 
G |---5-------5-------7-------7--------12--------12--------12--------12-------| 
D#|-0---0---0---0---0---0---0---0----0----0----0----0----0----0----0----0-----| 

Chorus** X1 
A#|---------------------------------------------------------------------------| 
F |---------------------------------------------------------------------------| 
D#|---------------------------------------------------------------------------| 
A#|-------5-------5-------7-------5--------5-------5-------5------5-----------| 
G |---5-------5-------7-------7--------3-------3-------3-------3--------------| 
D#|-0---0---0---0---0---0---0---0----0---0---0---0---0---0---0---0------------| 


Chorus X2 
A#|---------------------------------------------------------------------------| 
F |---------------------------------------------------------------------------| 
D#|--------------------------------------------------------2-------4----------| 
A#|-------5-------5-------7-------5--------5-------4--------------------------| 
G |---5-------5-------7-------7--------3-------3-------3-------3--------------| 
D#|-0---0---0---0---0---0---0---0----0---0---0---0---0---0---0---0------------| 


A#|---------------------------------------------------------------------------| 
F |---------------------------------------------------------------------------| 
D#|-------------------------------------------------------------9-------------| 
A#|-------5-------5-------7-------5---------12--------10------------------12--| 
G |---5-------5-------7-------7--------12--------12--------12--------12-------| 
D#|-0---0---0---0---0---0---0---0----0----0----0----0----0----0----0----0-----| 


A#|---------------------------------------------------------------------------| 
F |---------------------------------------------------------------------------| 
D#|-------------------------------------------------------------9---------10--| 
A#|-------5-------5-------7-------5---------12--------10----------------------| 
G |---5-------5-------7-------7--------12--------12--------12--------12-------| 
D#|-0---0---0---0---0---0---0---0----0----0----0----0----0----0----0----0-----| 
		  

auto scroll beats size up size down change color hide chords drawings
tab show chords e-chords YouTube Clip e-chords hide all tabs e-chords go to top tab

share