Into It Over It

Embracing Facts

Into It Over It

tabs

by  VICTBORGES

save to print version add songbook text version e-mail correct tuner
chordsukulelecavacokeyboardtabbassdrumsharmonicaflute Guitar Pro
close

there isn't a video lesson for this song

chords

Embracing Facts

Written by Evan Thomas Weiss

	  		Tuning: C#/G#/C#/F/G#/C# or D#/A#/D#/G#/A#/D# 


 

Verse: Repeat until "Drag this out just to pass the blame..." (about 12x) 
C#|---------------------------------------------------------------------------| 
G#|----0-------------------0--------------------------------------------------| 
F |--------0-----0-------------0------0---------------------------------------| 
C#|------------------0--------------------0-----------------------------------| 
G#|---------------------------------------------------------------------------| 
C#|--5---5---5h7---7---7/9---9----9\0---0---0h--------------------------------| 

Break: Repeat during the break. (about 4x 
C#|---------------------------------------------------------------------------| 
G#|----0-------------------0--------------------------------------------------| 
F |--------0-----0-------------0-----0----------------------------------------| 
C#|------------------0-------------------0------------------------------------| 
G#|---------------------------------------------------------------------------| 
C#|--5---5---5h7---7---7\0---0---0h4---4---4h---------------------------------| 

Begin to play the verse when the singing comes back until "..that you and I simply can't afford..." 

Repeat the break 4x 

Then the ending: 
C#|---------------------------------------------------------------------------| 
G#|------0--------------------------------------------------------------------| 
F |----------0-----0----------------------------------------------------------| 
C#|--------------------0------------------------------------------------------| 
G#|---------------------------------------------------------------------------| 
C#|----5---5---5p4---4---4h---------------------------------------------------| 

The Little Elephant version goes directly into No Good Before Noon  
		  

auto scroll beats size up size down change color hide chords drawings
tab show chords e-chords YouTube Clip e-chords hide all tabs e-chords go to top tab

share