Interpuesto

De Chica En Chica

Interpuesto

tabs

by  ADALGOMES

save to print version add songbook text version e-mail correct tuner
chordsukulelecavacokeyboardtabbassdrumsharmonicaflute Guitar Pro
close

there isn't a video lesson for this song

chords

De Chica En Chica

	  		te amo princesa!!! 

Es la introduccion de la rola: 

E---------------------------------------- 
B---18--13-13/14---11--7-9---------------    x2 
G---------------------------------------- 
De chica en chica..... 

Este es el solo: 


E---------------------------------------- 
B---18--13-13/14---11--7-9--------------- 
G---------------------------------------- 

Esto se toca como Tapping (T es con la mano derecha) 
   T        T        T       T 
E--13-9-6---11-8-4---9-5-2---11-8-4--------- 
B------------------------------------------- 
G------------------------------------------- 

Fin: 
Solo para ti. solo para ti....  Ahh 
  
E------------------------------------------- 
B-----14-16--10-12--16-16/18---------------- 
		  

auto scroll beats size up size down change color hide chords drawings
tab show chords e-chords YouTube Clip e-chords hide all tabs e-chords go to top tab

share