Insite

Sola

Insite

tabs

by  JOSUE2011

save to print version add songbook text version e-mail correct tuner
chordsukulelecavacokeyboardtabbassdrumsharmonicaflute Guitar Pro
close

there isn't a video lesson for this song

chords

Sola

	  		Intro: 
Guitarra 1 y 2: 
1|---------------------------------- 
2|---------------------------------- 
3|---------------------------------- 
4|---------------------------------- 
5|--9-9----0-0--0--0-0--0--0-0--0--- 
6|--9-9----0-0--0--0-0--0--0-0--0--- 
PM  * * 
                                      (x2) 
1|---------------------------------- 
2|---------------------------------- 
3|---------------------------------- 
4|---------------------------------- 
5|--9-9--9--9-9--9--9-9--9---------- 
6|--9-9--9--9-9--9--9-9--9---------- 

AKI ESTA LA PARTE DEL VIOLIN ARREGLADO PARA GUITARRA: 

1|------10---9------------------------------- 
2|---------------10---8---7---8---7---------- 
3|--7-7----7---7----7---7---7---7------------  (x4) 
4|------------------------------------------- 
5|------------------------------------------- 
6|------------------------------------------- 

-Verso 
Guitarra 1 y 2: 
1|-------------------------------------------------- 
2|-------------------------------------------------- 
3|-------------------------------------------------- 
4|-------------------------------------------------- 
5|-5-5-5-5-5-5-5-5-5-5-5-5--7-7-7-7-7-7-7-7-7-7-7-7- 
6|-5-5-5-5-5-5-5-5-5-5-5-5--7-7-7-7-7-7-7-7-7-7-7-7- 
                                                       (x2) 
1|-------------------------------------------------- 
2|-------------------------------------------------- 
3|-------------------------------------------------- 
4|-------------------------------------------------- 
5|-9-9-9-9-9-9-9-9-9-9-9-9-9-9-9-9-9-9-9-9-9-9-9-9-- 
6|-9-9-9-9-9-9-9-9-9-9-9-9-9-9-9-9-9-9-9-9-9-9-9-9-- 
 no entiendo porke te vas de mi 
 pero pasa el tiempo (todo sigue igual) 
 y sueles olvidarte de ke existo pero 
 (nada cambia)- 

Guitarra 1: 
1|--------------------------------------------------------------- 
2|------3-----3-----3-----3-----3-----3-----3-----3-----3-------- 
3|--0-2---0-2---0-2---0-2---0-2---0-2---0-2---0-2---0-2---0------ 
4|--------------------------------------------------------------- 
5|----------------------------------------------------------5-5-- 
6|----------------------------------------------------------5-5-- 
PM                                                          * * 

Guitarra 2: 
1|---------------------------------------------------------- 
2|---------------------------------------------------------- 
3|---------------------------------------------------------- 
4|---------------------------------------------------------- 
5|-5-5-5-5-5-5-5-5-5-5-5-5-5-5-5-5-5-5-5-5-5-5-5-5-5-5--5-5- 
6|-5-5-5-5-5-5-5-5-5-5-5-5-5-5-5-5-5-5-5-5-5-5-5-5-5-5--5-5- 
PM                                                      * * 
  -y mi vida sin ti- 

-Coro 
Guitarra 1 y 2: 
1|--------------------------------------------------------- 
2|--------------------------------------------------------- 
3|--------------------------------------------------------- 
4|--------------------------------------------------------- 
5|-0-0--0--0-0--0--0-0--0--9-9--9--9-9--9--9-9--9---------- 
6|-0-0--0--0-0--0--0-0--0--9-9--9--9-9--9--9-9--9---------- 
                                                             (x2) 
1|--------------------------------------------------------- 
2|--------------------------------------------------------- 
3|--------------------------------------------------------- 
4|--------------------------------------------------------- 
5|-0-0--0--0-0--0--0-0--0--9-9-9-9-9--9-9-9-9-9--12/------- 
6|-0-0--0--0-0--0--0-0--0--9-9-9-9-9--9-9-9-9-9--12/------- 
 y estas sola 
 pero no piensas en mi 
 y no puedo respirar 
 en donde estas 

-Puente 
Guitarra 1: 
1|--------------------------------------------------------- 
2|--------------------------------------------------------- 
3|-----11-11-11-11------11-11-12-12----------11-11-11-11--- 
4|------x--x--x--x-------x--x--x--x-----------x--x--x--x--- 
5|-5-5--9--9--9--9--5-5--9--9-10-10--5-5-7-7--9--9--9--9--- 
6|-5-5--------------5-5--------------5-5-7-7--------------- 

1|----------------------------------------------------------------- 
2|----------------------------------------------------------------- 
3|-----11-11-12-12-------14-14-------14-14-14-14-------14-14-16-16- 
4|------x--x--x--x--------x--x--------x--x--x--x--------x--x--x--x- 
5|-7-7--9--9-10-10--7-7--12-12--9-9--12-12-12-12--9-9--12-12-14-14- 
6|-7-7--------------7-7---------9-9---------------9-9-------------- 

1|------------------------------------ 
2|------------------------------------ 
3|---------11-11-11-11------11-11-11-- 
4|----------x--x--x--x-------x-x-x-x-- 
5|-9-9-7-7--9--9--9--9--7-7--9-7-7-7-- 
6|-9-9-7-7--------------7-7----------- 

Guitarra 2: 
1|------------------------------------------------------------ 
2|----------------------------------------------------7-7-9-9- 
3|------7-7-7-7-------7-7-9-9-----------7-7-7-7-------x-x-x-x- 
4|------x-x-x-x-------x-x-x-x-----------x-x-x-x-------5-5-7-7- 
5|-5-5--5-5-5-5--5-5--5-5-7-7--5-5-7-7--5-5-5-5--7-7---------- 
6|-5-5-----------5-5-----------5-5-7-7-----------7-7---------- 

1|---------------------------------------------- 
2|---------------------------------------------- 
3|-----11-11------11-11-11-11------11-11-12-12-- 
4|------x--x-------x--x--x--x-------x--x--x--x-- 
5|-7-7--9--9--9-9--9--9--9--9--9-9--9--9-10-10-- 
6|-7-7--------9-9--------------9-9-------------- 

1|-------------------------------- 
2|-------------------------------- 
3|----------7-7-7-7-------7-6-6-6- 
4|----------x-x-x-x-------x-x-x-x- 
5|-9-9-7-7--5-5-5-5--7-7--5-4-4-4- 
6|-9-9-7-7-----------7-7---------- 

-Verso 2 
Guitarra 1: (x2) 
1|------------------------------------------------- 
2|------7-7-7-7------7-7-8-8------7-7------7-7-7-7- 
3|------------------------------------------------- 
4|--5-5----------5-5----------5-5------7-7--------- 
5|------------------------------------------------- 
6|------------------------------------------------- 

1|---------------------------------------------------------- 
2|-----7-7-8-8------10-10------10-10-10-10------10-10-12-12- 
3|---------------------------------------------------------- 
4|-7-7----------7-7--------9-9--------------9-9------------- 
5|---------------------------------------------------------- 
6|---------------------------------------------------------- 

1|----------------------------------------------- 
2|-----7-7------7-7-7-7------7-------------7----- 
3|------------------------------9-9-9------------ 
4|-9-9-----7-7-----------7-7-----------7-7------- 
5|----------------------------------------------- 
6|----------------------------------------------- 


Guitarra 2:(x2) 
1|--------------------------------------------------- 
2|-----------------------5-5------------------------- 
3|-----7-7-7-7------7-7-----------7-7--------7-7-7-7- 
4|-5-5----------5-5-----------5-5-------7-7---------- 
5|--------------------------------------------------- 
6|--------------------------------------------------- 

1|----------------------------------------------------------- 
2|----------------------------------------------------------- 
3|------7-7-9-9------11-11------11-11-11-11------11-11-12-12- 
4|-7-7-----------7-7-------9-9---------------9-9------------- 
5|----------------------------------------------------------- 
6|----------------------------------------------------------- 

1|----------------------------------------------------------- 
2|----------------------------------------------------------- 
3|------7-7------7-7-7-7--------7-6-6-6------7--------------- 
4|-9-9------7-7------------7-7-----------7-7----------------- 
5|----------------------------------------------------------- 
6|----------------------------------------------------------- 


-Coro 



-Puente 


-Puente 2: 
Guitarra 1: 
1|------------------------------------------- 
2|------------------------------------------- 
3|--0-12-14-0-18-19-0-12-14-0-11-12-0-12-11--  (x4) 
4|------------------------------------------- 
5|------------------------------------------- 
6|------------------------------------------- 

Guitarra 2: 
1|------------------------------------------- 
2|------------------------------------------- 
3|------------------------------------------- 
4|------------------------------------------- 
5|-5-5-5-5-5-5-5-5-5-5-5-5-5-5-5-5-5-5-5-5-5- 
6|-5-5-5-5-5-5-5-5-5-5-5-5-5-5-5-5-5-5-5-5-5- 

1|-------------------------------------------- 
2|-------------------------------------------- 
3|-------------------------------------------- 
4|-------------------------------------------- 
5|-7--9-9-9-9-9-9-9-9-9-9-9-9-9-9-9-9-9-9-9-9- 
6|-7--9-9-9-9-9-9-9-9-9-9-9-9-9-9-9-9-9-9-9-9- 

1|-------------------------------------------- 
2|-------------------------------------------- 
3|-------------------------------------------- 
4|-------------------------------------------- 
5|-12-12-12-12-12-12-12-12--7--5-5-5-5-5-5-5-- 
6|-12-12-12-12-12-12-12-12--7--5-5-5-5-5-5-5-- 


-Coro 


TERMINA ASI: 
1|------------- 
2|------------- 
3|------------- 
4|------------- 
5|-0----------- 
6|-0----------- 
		  

auto scroll beats size up size down change color hide chords drawings
tab show chords e-chords YouTube Clip e-chords hide all tabs e-chords go to top tab

share