Inme

home > Inme

Gently Hurting (ver. 3) Tab

Inme

Difficulty: nolevelnolevel

tuner correct add songbook print version text version save to e-mail
chordsukulelecavacokeyboardtabbassdrumsharmonicsflute Guitar Pro
chords

Gently Hurting (ver. 3)

  		Intro: 
|--------------------------------------------| 
|--------------------------------------------| 
|------------------------------------5b------| 
|-------------5b-----------------------------| 
|------3-0-3-----3-0-3--------3-0-3----3-0-3-| 
|-0-0---------------------0-0----------------| 
 
|-----------------------------------------------| 
|-----------------------------------------------| 
|-----------------------------------------------| 
|-------------5b---------------3---3------3---3-| 
|------3-0-3-----3-0-3-----------0----------0---| 
|-0-0---------------------0-0--------0-0--------| 
 
Intro 2: 
|--------------------------------------------| 
|--------------------------------------------| 
|-----------333-------------------333--------| 
|-000--444--333--1-11---000--444--333--1-111-| 
|-000--444--111--1-11---000--444--111--1-111-| 
|-000--444-------1-11---000--444-------1-111-| 
pm                                       ... 
 
|------------------------------------------| 
|------------------------------------------| 
|-----------333------------------333-------| 
|-000--444--333--111---000--444--333--1-11-| 
|-000--444--111--111---000--444--111--1-11-| 
|-000--444-------111---000--444-------1-11-| 
 
(Second guitar at the end on the Riff, i play this instead of the 1's) 
|--------------------------------------------|    
|--------------------------------------------| 
|-------------------------------------999777-| 
|--------------------------------------------| 
|--------------------------------------------| 
|--------------------------------------------| 
 
Verse: 
Some very watery clever playing here, not tabbed. 
 
Verse interlude: 
|---------------------|       
|---------------------|     
|-------------3-33----|	   
|-0-00--4-44--3-33--1-|      
|-0-00--4-44--1-11--1-|      
|-0-00--4-44--------1-| 
 
Chorus 1 (Pick slide into): 
|--------------------------------------------| 
|--------------------------------------------| 
|------------------------------------5b------| 
|-------------5b-----------------------------| 
|------3-0-3-----3-0-3--------3-0-3----3-0-3-| 
|-0-0---------------------0-0----------------| 
(2nd Bar) 
|------------------------------------------| 
|------------------------------------------| 
|------------------------------------------| 
|-------------5b----------4--111----4--111-| 
|------3-0-3-----3-0-3----4--111----4--111-| 
|-0-0---------------------4--111----4--111-| 
(Chorus 1 - last bar) 
|-----------------------------------| 
|-----------------------------------| 
|-----------------------------------| 
|-------------5b--------------444-5-| 
|------3-0-3-----3-0-3--------444-5-| 
|-0-0-------------------------444-5-| 
(Chorus 2 - last bar) 
|-------------------------------------| 
|-------------------------------------| 
|-------------------------------------| 
|-------------5b--------------444-555-| 
|------3-0-3-----3-0-3--------444-555-| 
|-0-0-------------------------444-555-| 
 
Pre-Chorus: 
|---------------------------------------------| 
|---------------------------------------------| 
|---------------------------------------------| 
|-------------5b--------------3---3-----3---3-| 
|------3-0-3-----3-0-3----------0---------0---| 
|-0-0---------------------0-0-------0-0-------| 
 
|---------------------------------------------| 
|---------------------------------------------| 
|-----------333--------------------333--------| 
|-000--444--333--1-111---000--444--333--1-111-| 
|-000--444--111--1-111---000--444--111--1-111-| 
|-000--444-------1-111---000--444-------1-111-| 
pm                                        ... 
 
Song Order: 
Intro           x 1 
Intro 2         x 1  
Verse           x 6 
Verse Interlude x 1 
Verse           x 4 
Chorus 1        x 4 
Interlude       x 4 
Pre-Chorus      x 1 
Chorus 2        x 4 
 
Any mistakes please email me at - [email protected] so I can correct them. 
 

	  

Search Paypal
auto scroll beats size up size down change color hide chords drawings
tab show chords e-chords YouTube Clip e-chords hide all tabs e-chords go to top tab