Inme

home > Inme

Gently Hurting (ver. 2) Tab

Inme

Difficulty: nolevelnolevel

tuner correct add songbook print version text version save to e-mail
chordsukulelecavacokeyboardtabbassdrumsharmonicsflute Guitar Pro
chords

Gently Hurting (ver. 2)

  		Intro 
E|---------------------------------------------------| 
B|---------------------------------------------------| 
G|--------------------------------------5^-----------| 
D|---------------5^----------------------------------| 
A|--------0-3-0-----3-0-3---------0-3-0-----3-0-3----| 
D|--0c-0c-------------------0c-0c--------------------| 
 
E|---------------------------------------------------| 
B|---------------------------------------------------| 
G|---------------------------------------------------| 
D|---------------5^----------------3---3-------3---3-| 
A|--------0-3-0-----3-0-3------------0-----------0---| 
D|--0c-0c---------------------0c-0c-------0c-0c------| 
 
 
E|---------------------------------------------------| 
B|---------------------------------------------------| 
G|---------------------------------------------------| 
D|--0-000--4-444--8-888------------------------------| 
A|--0-000--4-444--8-888------3---4-------------------| 
D|--0-000--4-444--8-888----1---1---1^----------------| 
 
E|---------------------------------------------------| 
B|---------------------------------------------------| 
G|---------------------------------------------------| 
D|--0-000--4-444--8-888--1-111-----------------------| 
A|--0-000--4-444--8-888--1-111-----------------------| 
D|--0-000--4-444--8-888--1-111-----------------------| 
                           ... 
 
E|---------------------------------------------------| 
B|---------------------------------------------------| 
G|---------------------------------------------------| 
D|--0-000--4-444--8-888------------------------------| 
A|--0-000--4-444--8-888-----3---4--------------------| 
D|--0-000--4-444--8-888---1---1---1------------------| 
						 
E|---------------------------------------------------|        
B|---------------------------------------------------|      
G|---------------------------------------------------|      
D|--0-000--4-444--8-888--1-111-----------------------|      
A|--0-000--4-444--8-888--1-111-----------------------|    there are some effects over 
D|--0-000--4-444--8-888--1-111-----------------------|     this part, dnt know what 
                           ... 
 
Verse  (UNKNOWN) 
 
 
Then 
 
E|---------------------------------------------------|       
B|---------------------------------------------------|     
G|---------------------------------------------------|	   
D|--0-000--4-444--8-888--1c--------------------------|      
A|--0-000--4-444--8-888--1c--------------------------|      
D|--0-000--4-444--8-888--1c--------------------------| 
 
Chorus 
E|---------------------------------------------------| 
B|---------------------------------------------------| 
G|---------------------------------------------------| 
D|/---------------5^---------4>---5>-----------------| 
A|/--------0-3-0-----3-0-3---4>---5>-----------------| 
D|/--0c-0c-------------------4>---5>-----------------| 
 
   
E|---------------------------------------------------| 
B|---------------------------------------------------| 
G|---------------------------------------------------| 
D|--------------5^--------------4--111----4--111-----| 
A|-------0-3-0-----3-0-3--------4--111----4--111-----| 
D|--0c-0c-----------------------4--111----4--111-----| 
 
E|---------------------------------------------------| 
B|---------------------------------------------------| 
G|---------------------------------------------------| 
D|---------------5^---------4>---5>------------------| 
A|--------0-3-0-----3-0-3---4>---5>------------------| 
D|--0c-0c-------------------4>---5>------------------| 
 
 
E|---------------------------------------------------| 
B|---------------------------------------------------| 
G|---------------------------------------------------| 
D|---------------5^---------------444-5c-------------| 
A|--------0-3-0-----3-0-3---------444-5c-------------| 
D|--0c-0c-------------------------444-5c-------------| 
 
 
Interlude (AGAIN UNKNOWN SOZ Y'ALL) 
 
 
Breakout Chorus... 
E|---------------------------------------------------| 
B|---------------------------------------------------| 
G|---------------------------------------------------| 
D|---------------5^--------------3---3-------3---3---| 
A|--------0-3-0-----3-0-3----------0-----------0-----|       
D|---0c-0c------------------0c-0c------0c-0c---------|          
 
E|---------------------------------------------------| 
B|---------------------------------------------------| 
G|---------------------------------------------------| 
D|--0-000--4-444--8-888------------------------------| 
A|--0-000--4-444--8-888---3---4----------------------| 
D|--0-000--4-444--8-888-1---1---1--------------------| 
 
E|---------------------------------------------------|       
B|---------------------------------------------------|     
G|---------------------------------------------------|	   
D|--0-000--4-444--8-888--1-111-----------------------|      
A|--0-000--4-444--8-888--1-111-----------------------|      
D|--0-000--4-444--8-888--1-111-----------------------| 
                           ... 
 
E|---------------------------------------------------| 
B|---------------------------------------------------| 
G|---------------------------------------------------| 
D|---------------5^--------------4>---5>-------------| 
A|--------0-3-0-----3-0-3--------4>---5>-------------| 
D|--0c-0c------------------------4>---5>-------------| 
 
E|---------------------------------------------------| 
B|---------------------------------------------------| 
G|---------------------------------------------------| 
D|--------------5^--------------4--111----4--111-----| 
A|-------0-3-0-----3-0-3--------4--111----4--111-----| 
D|--0c-0c-----------------------4--111----4--111-----| 
 
E|---------------------------------------------------| 
B|---------------------------------------------------| 
G|---------------------------------------------------| 
D|---------------5^-----------4>---5>----------------| 
A|--------0-3-0-----3-0-3-----4>---5>----------------| 
D|--0c-0c---------------------4>---5>----------------| 
 
E|---------------------------------------------------| 
B|---------------------------------------------------| 
G|---------------------------------------------------| 
D|--------------5^--------------444-555c-------------| 
A|-------0-3-0-----3-0-3--------444-555c-------------| 
D|--0c-0c-----------------------444-555c-------------| 
 
Seen as the previous version was Copied by some prick, u know who you are, i edited it to make it sound more like the song (hopefully)! 
 

	  

Search Paypal
auto scroll beats size up size down change color hide chords drawings
tab show chords e-chords YouTube Clip e-chords hide all tabs e-chords go to top tab