Inme

home > Inme

Gently Hurting (ver. 1) Tab

Inme

Difficulty: nolevelnolevel

tuner correct add songbook print version text version save to e-mail
chordsukulelecavacokeyboardtabbassdrumsharmonicsflute Guitar Pro
chords

Gently Hurting (ver. 1)

  		------------------------------------------------------------------------------------ 
----------------------------------------------------------------------------------- 
------------------------------------5^---------------------------------------------- 
-------------5^------------------------------------------------5^-------------3------ 
------3-0-3-----3-0-3-------3-0-3-------3-0-3----------3-0-3------3-0-3---------0---- 
-0-0-------------------0-0-----------------------0-0---------------------0-0-------0- 
 
 
------------------- 
------------------- 
------------------- 
--------3---------- 
----------1-------- 
--1-1-------1------ 
 
 
-------------------------------------------------------------------------------- 
-------------------------------------------------------------------------------- 
-------------------------------------------------------------------------------- 
--0-0-0-0---4-4-4-4---8-8-8-8------------------------0-0-0-0---4-4-4-4---8-8-8-8 
--0-0-0-0---4-4-4-4---8-8-8-8--------4-----3---------0-0-0-0---4-4-4-4---8-8-8-8 
--0-0-0-0---4-4-4-4---8-8-8-8-----1-----1-----1------0-0-0-0---4-4-4-4---8-8-8-8 
 
--------- 
--------- 
---------  
-1-1-1-1- 
-1-1-1-1- 
-1-1-1-1- 
 
------------------------------------------------------------------------------------ 
------------------------------------------------------------------------------------ 
----------------------------------------------------------------------10-10-10-10-9-9 
--0-0-0-0---4-4-4-4---8-8-8-8------------------------0-0-0-0---4-4-4-4-------------- 
--0-0-0-0---4-4-4-4---8-8-8-8--------4-----3---------0-0-0-0---4-4-4-4-------------- 
--0-0-0-0---4-4-4-4---8-8-8-8-----1-----1-----1------0-0-0-0---4-4-4-4-------------- 
 

	  

Search Paypal
auto scroll beats size up size down change color hide chords drawings
tab show chords e-chords YouTube Clip e-chords hide all tabs e-chords go to top tab