Incubus

home > Incubus

Echo Tab

Incubus

Difficulty: ExpertExpert

tuner correct add songbook print version text version save to e-mail
chordsukulelecavacokeyboardtabbassdrummharmonicsflute Guitar Pro
chords

Echo

  		intro (chorus too) 
x4 
E------0----------------------------------------------------------- 
B------0-------------------------------------------------------- 
G--------2/4-4/7-7/9-9b/7-7-------4---4/7--7/4--4-4b/2-2------- 
D--------2/4-4/7-7/9-9b/7-7-----4-----4/7--7/4-4--4b/2-2------ 
A----0----------------------0^2------------------------------------- 
D--0------------------------------------------------------------- 
 
 
There's something about ... 
x2 
E--0----------0----------0---------------------0----------0------------ 
B---0-------0---0------3---3-----------------0---0------3---3----------- 
G----2----2-------2----4-----4------2/4----2-------2----4-----4-----2/4---- 
D-----0-------------4--4-------4----2/4--------------4--4-------4---2/4--- 
A------0---------------2---------2----------------------2---------2------ 
D-------0-------------------------------0-------------------------------0-- 
 
My biggest fear ... 
                                         x2 
E------------------------------------------ ---------- 
B--------7----------7--------6----------6-- --6------ 
G--------7---------7---------5---------5--- --5------- 
D--------5--------5----------3--------3---- --3------- 
A----5--------5----------3--------3-------- --3------ 
D--5---5----5---5------3---3----3---3------ --3------- 
 
 
Guitar solo. I think they are harmonics, but can't  
find them. Who knows, maybe is an effect... 
E---------------------------------------------------------7---------------- 
B--12-10-7---------------------------------------------7----10-7------------ 
G----------9b-7b------------------------7-9-7--7-9-7-9-----------9b-7-------- 
D----------------9b-7-9-------------7-9-------------------------------9-7--- 
A------------------------7-9-7--7-9---------------------------------------- 
D--------------------------------------------------------------------------- 
 
 
 
_______________________________________________________ 
Contribuição: Victor Kendji([email protected]) 

	  

Search Paypal
auto scroll beats size up size down change color hide chords drawings
tab show chords e-chords YouTube Clip e-chords hide all tabs e-chords go to top tab