IM5

Heartless

IM5

tabs Advanced advanced

by  ABELAMIN

save to print version add songbook text version e-mail correct tuner
chordsukulelecavacokeyboardtabbassdrumsharmonicaflute Guitar Pro
close

there isn't a video lesson for this song

chords

Heartless

	  		
Original Version 

Verse/Chorus 
   Dm              Fadd9           Bb6               A+           (7x) 
e|----------------------------------------------------------------| 
B|-------6-x-------------8-x-------------8-x-------------6-x------| 
G|-----7-7-x----------10-10x-----------9-9-x-----------6-6-x------| 
D|---7-----x--------10-----x---------8-----x---------5-----x------| 
A|-5-------x-------8-------x-------10------x---------------x------| 
E|-------------------------------------------------5--------------| 
   1   +   2   +   3   +   4   +   1   +   2   +   3   +   4   + 

   Dm              Fadd9           Bb6               A7 
e|-------------------------------------------------5--------------| 
B|-------6-x-------------8-x-------------8-x-------5-s-s-s-s-s-s--| 
G|-----7-7-x----------10-10x-----------9-9-x-------6-t-t-t-t-t-t--| 
D|---7-----x--------10-----x---------8-----x-------5-r-r-r-r-r-r--| 
A|-5-------x-------8-------x-------10------x-------7-u-u-u-u-u-u--| 
E|-------------------------------------------------5-m-m-m-m-m-m--| 
   1   +   2   +   3   +   4   +   1   +   2   +   3   +   4   + 

Pre-Chorus (with semi-complicated strumming pattern): 
Dm      C   Bb                  Bb      C       Dm 
D   D U D U D   D U D U D U D U D   D U D U D   D U D U D U D U 
1   +   2   +   3   +   4   +   1   +   2   +   3   +   4   + 

Dm      C   Bb                  A 
D   D U D U D   D U D U D U D U D D D D D D D D D D 
1   +   2   +   3   +   4   +   1   +   2   +   3   +   4   + 

Chorus (if you have a second guitarist, they can play the bridge tab over this): 
Dm          C   Bb              Gm          Bb  A7 
D D D D X   D   D D D D X       D D D D X   D   D D D   D D D 
1   +   2   +   3   +   4   +   1   +   2   +   3   +   4   + 

Bridge Tab: 
   Dm              Fadd9           Bb6               A+           (2x) 
e|----------------------------------------------------------------| 
B|-------6-x-------------8-x-------------8-x-------------6-x------| 
G|-----7-7-x----------10-10x-----------9-9-x-----------6-6-x------| 
D|---7-----x--------10-----x---------8-----x---------5-----x------| 
A|-5-------x-------8-------x-------10------x---------------x------| 
E|-------------------------------------------------5--------------| 
   1   +   2   +   3   +   4   +   1   +   2   +   3   +   4   + 

   Dm          C  Bb               Bb6         Bb  A 
e|-----------------------------------------------------------------| 
B|-------6-x-------------6-x-------------8-x-----------5-------5---| 
G|-----7-7-x---10------7-7-x-----------9-9-x-----------6-------6---| 
D|---7-----x---10----8-----x---------8-----x---8-----7-------7-----| 
A|-5-------x---------------x-------10------x---8-------------------| 
E|-------------8---6---------------------------6---5-------5-------| 
   1   +   2   +   3   +   4   +   1   +   2   +   3   +   4   + 

   Dm          C  Bb               Bb6         Bb  A 
e|-----------------------------------------------------------------| 
B|-------6-x-------------6-x-------------8-x-----------5-x---------| 
G|-----7-7-x---10------7-7-x-----------9-9-x-----------6-x---------| 
D|---7-----x---10----8-----x---------8-----x---8-----7---x---------| 
A|-5-------x---------------x-------10------x---8---------x---------| 
E|-------------8---6---------------------------6---5---------------| 
   1   +   2   +   3   +   4   +   1   +   2   +   3   +   4   + 

So the song goes? 
Verse 
Pre-Chorus 
Chorus 
Verse 
Pre-Chorus 
Chorus 
Bridge 
Chorus 

---- 

Simplified Version ( 
) 

Verse Tab: 
   Am              Cadd9           F6              E+             (7x) 
e|----------------------------------------------------------------| 
B|-------1-x-------------3-x-------------3-x-------------1-x------| 
G|-----2-2-x-----------0-0-x-----------2-2-x-----------1-1-x------| 
D|---2-----x---------2-----x-------0h3-----x---------0-----x------| 
A|-0-------x-------3-------x---------------x---------------x------| 
E|-------------------------------------------------0--------------| 
   1   +   2   +   3   +   4   +   1   +   2   +   3   +   4   + 

   Am              Cadd9           F6              E7 
e|-------------------------------------------------0--------------| 
B|-------1-x-------------3-x-------------3-x-------0-s-s-s-s-s-s--| 
G|-----2-2-x-----------0-0-x-----------2-2-x-------1-t-t-t-t-t-t--| 
D|---2-----x---------2-----x-------0h3-----x-------0-r-r-r-r-r-r--| 
A|-0-------x-------3-------x---------------x-------2-u-u-u-u-u-u--| 
E|-------------------------------------------------0-m-m-m-m-m-m--| 
   1   +   2   +   3   +   4   +   1   +   2   +   3   +   4   + 

Pre-Chorus (with semi-complicated strumming pattern): 
Am      G   F                   F       G       Am 
D   D U D U D   D U D U D U D U D   D U D U D   D U D U D U D U 
1   +   2   +   3   +   4   +   1   +   2   +   3   +   4   + 

Am      G   F                   E 
D   D U D U D   D U D U D U D U D D D D D D D D D D 
1   +   2   +   3   +   4   +   1   +   2   +   3   +   4   + 

Chorus (if you have a second guitarist, they can play the bridge tab over this): 
Am          G   F               Dm          F   E7 
D D D D X   D   D D D D X       D D D D X   D   D D D   D D D 
1   +   2   +   3   +   4   +   1   +   2   +   3   +   4   + 

Bridge Tab: 
   Am              Cadd9           F6              E+             (2x) 
e|----------------------------------------------------------------| 
B|-------1-x-------------3-x-------------3-x-------------1-x------| 
G|-----2-2-x-----------0-0-x-----------2-2-x-----------1-1-x------| 
D|---2-----x---------2-----x-------0h3-----x---------0-----x------| 
A|-0-------x-------3-------x---------------x---------------x------| 
E|-------------------------------------------------0--------------| 
   1   +   2   +   3   +   4   +   1   +   2   +   3   +   4   + 

   Am          G   F               F6          F   E 
e|-----------------------------------------------------------------| 
B|-------1-x-------------1-x-------------3-x-----------0-------0---| 
G|-----2-2-x---0-------2-2-x-----------2-2-x-----------1-------1---| 
D|---2-----x---0-----3-----x-------0h3-----x---3-----2-------2-----| 
A|-0-------x---------------x---------------x---3-------------------| 
E|-------------3---1-------------------------------0-------0-------| 
   1   +   2   +   3   +   4   +   1   +   2   +   3   +   4   + 

   Am          G   F               F6          F   E 
e|-----------------------------------------------------------------| 
B|-------1-x-------------1-x-------------3-x-----------0-x---------| 
G|-----2-2-x---0-------2-2-x-----------2-2-x-----------1-x---------| 
D|---2-----x---0-----3-----x-------0h3-----x---3-----2---x---------| 
A|-0-------x---------------x---------------x---3---------x---------| 
E|-------------3---1-------------------------------0---------------| 
   1   +   2   +   3   +   4   +   1   +   2   +   3   +   4   + 

So the song goes? 
Verse 
Pre-Chorus 
Chorus 
Verse 
Pre-Chorus 
Chorus 
Bridge 
Chorus 

So yeah. Comment any mistakes/suggestions. Good luck and have fun! 

@VincyBoiii 
		  

Full key step upFull key step up
Half key step upHalf key step up
Half key step downHalf key step down
Full key step downFull key step down
hide glossary

See also:

tabs Deep Purple - Smoke On The Water tabs Ira! - Núcleo Base ( Acústico MTV) tabs Deep Purple - When a Blind man cries tabs Deep Purple - Time To Kill tabs Ira! - O Girassol (intro) tabs Deep Purple - Smoke On The Water (solo Ver.2)
e-chords

Other versions:

tabs A Day to Remember - Heartless tabs IM5 - Heartless
auto scroll beats size up size down change color hide chords drawings
tab show chords e-chords YouTube Clip e-chords hide all tabs e-chords go to top tab

share