Ill Harmonics

Nomadic Caravans

Ill Harmonics

tabs nolevel nolevel

save to print version add songbook text version e-mail correct tuner
chordsukulelecavacokeyboardtabbassdrumsharmonicaflute Guitar Pro
close

there isn't a video lesson for this song

chords

Nomadic Caravans

	  		Tabbed by: Nathanael Pilla


The whole song is just in a Em position

Intro and Chorus
e|-----------------------------|
B|-----------------------------|
G|-----------------0---0-------|
D|---2--2--2--2--2---2---2---2-|
A|-2--2--2--2--2-----------2---|
E|-----------------------------|

e|--------------------------------------0--|
B|-------0------------------------------0--|
G|---0-----0-------0---0-----------0----0--|
D|-2---2-----2---2---2---2---2---2---2--2--|
A|2------------2-----------2---2--------2--|
E|--------------------------------------0--|


Just play for the verse the Em of strings A, D, G


Listen to the song to get the finger order for the 
verses.


e-mail me at [email protected] if you've got a question about anything
		  

Full key step upFull key step up
Half key step upHalf key step up
Half key step downHalf key step down
Full key step downFull key step down
hide glossary

See also:

tabs Queen - Bohemian Rhapsody tabs Coldplay - Clocks tabs Deep Purple - Smoke On The Water (Easy Intro) tabs The Beatles - And i love her(guitar full version) tabs The Beatles - All You Need Is Love Acoustic tabs Skid Row - 18 And Life
e-chords

Other versions:

tabs Ill Harmonics - Nomadic Caravans
auto scroll beats size up size down change color hide chords drawings
tab show chords e-chords YouTube Clip e-chords hide all tabs e-chords go to top tab

share with facebook