Igor Presnyakov

Mamma Mia

Igor Presnyakov

tabs Beginner beginner

by  RENEJUNIOR

save to print version add songbook text version e-mail correct tuner
chordsukulelecavacokeyboardtabbassdrumsharmonicaflute Guitar Pro
close

there isn't a video lesson for this song

chords

Mamma Mia

	  		
Intro                                Intro 2 
                                     x2                                     x2 
e|----5---5---5---6---6---6---6---5---|--------2-----3--0-2-0-2--0h2p0--------| 
B|------------------------------------|------3-3-----3--3-3-3-3--------3------| 
G|--7---7---7---7---7---7---7---7-----|----2-------2---------------------0----| 
D|------------------------------------|----------0------0-0-0-0--0------------| 
A|--5-----------5---------------5-----|---------------------------------------| 
E|------------------------------------|--0------------------------------------| 

   Verse 
                                                                            x2 
e|-----0--------0--0h2--|----0-0--------------|-------------3-3-2------------| 
B|-----3--2--3--3--3----|----3-3--2--3--2--0--|--3-3-5-3-3--0-0-0--3-3-------| 
G|-----2----------------|----2-2--------------|--0-0-0-0-0---------0-0-------| 
D|-----0----------------|----0-0--------------|------------------------------| 
A|--------0--0----------|---------0--0--0-----|------------------------------| 
E|--0--------------0----|--0---------------5--|------5----------5------------| 



e|--------2-----3--0-2-0-2--0h2p0------|--------2-----3--0-2-0-3-2-----| 
B|------3-3-----3--3-3-3-3--------3----|------3-3-----3--3-3-3-3-3--3--| 
G|----2-------2---------------------0--|----2-------2----3-3-3-3-3-----| 
D|----------0------0-0-0-0--0----------|----------0------0-0-0-0-0-----| 
A|-------------------------------------|-------------------------------| 
E|--0----------------------------------|--0----------------------------| 

                                                 Pre Chorus 

e|--0-2-2p0------|--2-2p0-----------------------|--3-2-------------------| 
B|--3-0-0---3----|--0-0---3--3-3-3--------------|--3-3--2-2-2-2-2-2-x-2--| 
G|---------------|-----------2-2-2-/-6-\-2-2-2--|--2-2--2-2-2-2-2-2-x-2--| 
D|---------------|-----------2-2-2-/-7-\-2-2-2--|-------2-2-2-2-2-2-x-2--| 
A|------------0--|-----------0-0-0-/-0-\-0-0-0--|-------0-0-0-0-0-0-x-0--| 
E|--5---5--------|--5---------------------------|------------------------| 

                                         Chorus 

e|--3-2------------------------2---0----|-----10-10-12-10--------------------| 
B|--3-3--2-2-x-2-x-2-x-2--2-2----3---3--|-----10-10-10-10--------------------| 
G|--2-2--2-2-x-2-x-2-x-2--2-2-----------|-----11-11-11-11--------------------| 
D|-------2-2-x-2-x-2-x-2--2-2-----------|------------------------------------| 
A|-------0-0-x-0-x-0-x-0--0-0-----------|------------------------------------| 
E|--------------------------------------|--0---0--0-----0--0--0--0--0--------| 



e|--10-10-12-14-12-10--|-------0-10----15-15-15------------------------------| 
B|--10-10-10-10-10-10--|-------8-8-----15-15-15-15-17-15-17-15---------------| 
G|--11-11-11-11-11-11--|-------9-9--------------14---------------------------| 
D|---------------------|-----------------------------------------------------| 
A|---------------------|-----------------------------------------------------| 
E|---0--0--0--0--0--0--|--0--0------0---0--0--0--0--0--0--0--0---------------| 


e|-----10-10-12-10-------------10-10-12-14-12-10--|--------0-10----15-15-15--| 
B|-----10-10-10-10-------------10-10-10-10-10-10--|--------8-8-----15-15-15--| 
G|-----11-11-11-11-------------11-11-11-11-11-11--|--------9-9---------------| 
D|--0---0--0--0--0--0--0--0--0--0--0--0--0--0--0--|--0--0-------0---0--0--0--| 
A|------------------------------------------------|--------------------------| 
E|------------------------------------------------|--------------------------| 



e|------------------| 
B|--15-17-15-17-15--| 
G|--14--------------| 
D|---0--0--0--0--0--| 
A|------------------| 
E|------------------| 

  Post Chorus 

e|-----5--5-5-5--0-2-3--|--------2--2-2-2--2-2-2--0--| 
B|-----3--3-3-3---------|--------3--3-3-3--2-3-2--0--| 
G|-----2--2-2-2---------|--------4--4-4-4--4-4-4-----| 
D|-----0--0-0-0---------|--------4--4-4-4--4-4-4-----| 
A|---------------0-0-0--|--0--2--2-------------------| 
E|--0-------------------|----------------------------| 



e|--------0-0------3--3-3------------|----0-0-2-0-----2-0-0-2-0----| 
B|--------0-3------0--0-0-3-5-3-5-3--|----3-3-3-3-3---3-3-3-3-3-3--| 
G|------------------------0-0-0-0-0--|----2-2-2-2---2-4-4-4-4-4----| 
D|-----------------------------------|----0-0-0-0-----4-4-4-4-4----| 
A|-----------------------------------|----------------2------------| 
E|--4/5-5---5--2-4/5------5---5---5--|--0--------------------------| 

                                Repeat from Intro 2 

e|--0--0------3-3-3------------|----------------------------------------------| 
B|--0--3------0-0-0-3-5-3-5-3--|----------------------------------------------| 
G|------------------0-0-0-0-0--|----------------------------------------------| 
D|-----------------------------|----------------------------------------------| 
A|-----------------------------|----------------------------------------------| 
E|--5--5--2-4-5-----5---5---5--|----------------------------------------------|  
		  

auto scroll beats size up size down change color hide chords drawings
tab show chords e-chords YouTube Clip e-chords hide all tabs e-chords go to top tab

share