Igor Presnyakov

Fast Car

Igor Presnyakov

tabs

by  ABELAMIN

save to print version add songbook text version e-mail correct tuner
chordsukulelecavacokeyboardtabbassdrumsharmonicaflute Guitar Pro
close

there isn't a video lesson for this song

chords

Fast Car

	  		This is a fingerstyle version of the song Fast Car by Tracey Chapman. I based the fingerstyle version by  
watching Igor Presnyakov's arrangement. 
Igor is playing with a half step down and a capo on the second fret.. but you can also play it with standard  
tuning and the  
Capo on 1 fret. 
Tracey is playing with standard tuning and capo on the second fret  


  

https://www.youtube.com/watch?v=fYfU2g8WPr4 

----------------------------------------------------------    / 
-0-1p0--3-3-3---8-8-7-7-7------0-1p0--3-3-3---8-8-7-7-7---    / 
-0------0-0-0---0---0-----0----0------0-0-0---0---0-----0-    /     
-2------0-0-0------------------2------0-0-0---------------    /   
-3------2-------7---5----------3------2-------7---5-------    / 
--------3-----------------------------3-------------------    / 
                                                              /    INTRO 
                                                              /                      
----------------------------------------------------------    / 
-0-1p0--3-3-3---8-10-8-7-8-7---0-1p0--3-3-3---8-8-7-7-7---    / 
-0------0-0-0---0--------------0------0-0-0---0---0-----0-    / 
-2------0-0-0------------------2------0-0-0---------------    / 
-3------2-------7------5-------3------2-------7---5-------    / 
--------3-----------------------------3-------------------    / 


-----------------------------------------------------------------------------------------  / 
---------------------------------------------------------0-0h3-3-------------------------  / 
-----------0-2-2-0---0-0---------------0-2-2-0---0-0-----0-------0-2p0--0-2-2-0---0-0----  /  
-0h2--2p0--2-------4-----0---0h2--2p0--2-------4-----0---2--------------2-------4-----0--  /  
-3---------2-------5---------3---------2-------5---------3--------------2-------5--------  /  
------3----0----------------------3----0---------------------------3----0----------------  / 
                                                                                           / 
                                                                                           /    VERSE 
--------------------------------                                                           / 
-0-0h3-3--------0-3-3-0-3p0-----                                                           / 
-0-------0-2p0--0-------0---2p0-                                                           / 
-2--------------2-------4-------                                                           / 
-3--------------2-------5-------                                                           / 
-----------3----0---------------                                                           / 


----------------------------------------------------------     / 
-0-1p0--3-3-3---8-8-7-7-7------0-1p0--3-3-3---8-8-7-7-7---     / 
-0------0-0-0---0---0-----0----0------0-0-0---0---0-----0-     /   FIRST PART OF INTRO AGAIN 
-2------0-0-0------------------2------0-0-0---------------     /   
-3------2-------7---5----------3------2-------7---5-------     / 
--------3-----------------------------3-------------------     / 


After this comes the second verse and after that comes the Chorus 


--------------------------------------------0-------------------------------------------------------  / 
-0-0-1p0---0--------------------------------0--3-3-3-3-3--3-5-0---0-1-0---0-----1p0-----1p0---0-----  / 
-0-0-0---2---0h2p0-----0-----0-0------------0--0-0-0-0-0--0---0---0-----2---2p0-0---0---0---2---2p0-  / 
-0-0-0---0---------0h2---2p0-0-0-0-0-0--2-2-2--4-4-4-4-4--4---2---0-----0-------2---2---0---0-------  / 
-2-----------3-----3-----3---2-2-0-0-0--2-2-2--5----------5---2---2-------------3---2---2-----------  / 
-3-------2-------------------3-3-2-3-3--0-0-0-----------------0---3-----2-----------0---3---2-------  / 
                                                                                                      /Chorus 
                                                                                                      / 
--------------                                                                                        / 
-0h1-1--3-3---                                                                                        / 
-0------0-0---                                                                                        / 
-2------4-4---                                                                                        / 
-3------5-----                                                                                        / 
--------------                                                                                        / 

And then it continues with half of the intro again following the third verse. 

I hope I helped you with my tab of this and comment if you have something to say :) 
		  

auto scroll beats size up size down change color hide chords drawings
tab show chords e-chords YouTube Clip e-chords hide all tabs e-chords go to top tab

share