Idlewild

I Dont Have The Map

Idlewild

tabs

save to print version add songbook text version e-mail correct tuner
chordsukulelecavacokeyboardtabbassdrumsharmonicaflute Guitar Pro
close

there isn't a video lesson for this song

chords

I Dont Have The Map

	  		------------------------------------------------------------------------------
------------------------------------------------------------------------------
------------------------------------------------------------------------------
---6--------6-----------------------------------------------------------------
-4---4--------4-------4--4--------6--6----------------------------------------
----------5--------2--------4--4----------------------------------------------
 intro and verse                                                              

------------------------------------------------------------------------------
-17--16--14------17--16--14-----17--16--14----17--16--14----------------------
-------------13-------------13-------------13------------13--9----8--11--13---
-------------------------------------------------------------x----x--x---x----
-------------------------------------------------------------7----6--9---11---
------------------------------------------------------------------------------
 pre chorus                                                                   

------------------------------------------------------------------------------
------------------------------------------------------------------------------
-13-----16--------------------------------------------------------------------
-x------x------11-----14--12--12----------------------------------------------
-11-----14-----x------x---x---x-----------------------------------------------
---------------9------12--10--10----------------------------------------------
 chorus                                                                       

------------------------------------------------------------------------------
------------------------------------------------------------------------------
-11------9------11------8-----11---13-----------------------------------------
-x-------x------x-------x-----x----x------------------------------------------
-9-------7------9-------6-----9----11-----------------------------------------
------------------------------------------------------------------------------
 bridge


Thom Mills [email protected]
		  

See also:

tabs Yes - Roundabout tabs Queen - we will rock you (solo) tabs Status Quo - Whatever you want tabs Eric Clapton - Tears In Heaven (ver. 3) tabs The Beatles - Blackbird tabs Billy Idol - White Wedding
e-chords

Other versions:

tabs Idlewild - I Dont Have The Map
auto scroll beats size up size down change color hide chords drawings
tab show chords e-chords YouTube Clip e-chords hide all tabs e-chords go to top tab

share