I The Mighty

Just Drive

I The Mighty

tabs

by  LUCICAMARGO

save to print version add songbook text version e-mail correct tuner
chordsukulelecavacokeyboardtabbassdrumsharmonicaflute Guitar Pro
close

there isn't a video lesson for this song

chords

Just Drive

	  		This is my very first tab, so bear with me! Ear tabbed, there are probably mistakes. 
Tuning is 1/2 step down. Timing is close but not exact. Clean v Distortion isn't 
written in. Notations are at the bottom of the page. Sorry for the length, there 
are a lot of different parts & wanted to be thorough. 
Correction suggestions are welcome and appreciated! 


verse 1 

LEFT Guitar          (First measure is intro) 
eb|---------------------------------------------------------------------------| 
bb|---------------------------------------------------------------------------| 
gb|---------------------------------------------------------------------------|    X4 
Db|-7-7-7-7--6-6-6-6--5-5-5-5--4-4-4-4-----------3-----------2-----2222222222-| 
Ab|-7-7-7-7--7-7-7-7--5-5-5-5--5-5-5-5-3-------3---3-0-3---3---3-0-2222222222-| 
Eb|-5-5-5-5--4-4-4-4--3-3-3-3--2-2-2-2---0-1-----------------------0000000000-| 
  | : : : :  : : : :  : : : :  : : : : 
  | 
RIGHT Guitar          (after 1 measure) 
eb|----------------------------------------7b8b7------------------------------| 
bb|---8----------10-------------------------------10---10-8---8----9999999999-| 
gb|------9p7---------9p7---------------------------------------9---8888888888-|    X3 
Db|-7---7----10-7---7----10-7---7-9-10-9------------------------11-9999999999-| 
Ab|----------------------------------------------------------------7777777777-| 
Eb|----------------------------------------------------------------7777777777-| 


Chorus (Fig. 1) 

LEFT Guitar 
|-------------------------------------------------------------------------------| 
|-------------------------------------------------------------------------------| 
|-------------------------------------------------------------------------------| 
|------3----------2----------0-------2-----0--------3----------2-----2222222222-| 
|-0--3---3-0-3--3---3-0----2---2---3---0-2--------3---3-0-3--3---3-0-2222222222-| 
|-----------------------3--------3-----------0-1---------------------0000000000-| 
| :  : : : : :  : : : : :  : : : : : : : : : : : : : : : : : : : : : 
| 
--------------------------------------------------------------------------------| 
--------------------------------------------------------------------------------| 
--------------------------------------------------------------------------------| 
-------3----------2------------------2--------------3----------2-----2222222222-| 
-----3---3-0-3--3---3-0----2-3-2---3---0-2-5------3---3-0-3--3---3---2222222222-| 
--1---------------------3--------3-----------0-1-------------------0-0000000000-| 
| 
| 
| 
RIGHT Guitar 
|------------3---------------------10b12b10-8----8h10p8-------------------------| 
|-1----------5----------3---------------------10---------10--8-----8-9999999999-| 
|-2----------5----------4---------------------------------------9----8888888888-| 
|-3----------5----------5--------------------------------------------9999999999-| 
|-3----------3----------5--------------------------------------------7777777777-| 
|--------------------------------------------------------------------7777777777-| 
| 
| 
--------------------------------------------------------------------------------| 
--------8----5-----8-------------------------------------------------9999999999-| 
--5---------------------7-----5-----7b8b7-5----5h7p5-----------------8888888888-| 
--------------------------------------------7----------7---5--\2--5--9999999999-| 
---------------------------------------------------------------------7777777777-| 
---------------------------------------------------------------------7777777777-| 


verse 2 

LEFT Guitar 
|------------------------------------------------------------------------------| 
|------------------------------------------------------------------------------| 
|-------------------------------------------------------5---5-5-5--------------| 
|-7-7-7-7---6-6-6-6---5-5-5-5---4-4-4-4-4---3---3-3-3---5---5-5-5---2222222222-| 
|-7-7-7-7---7-7-7-7---5-5-5-5---5-5-5-5-5---3---3-3-3---3---3-3-3---2222222222-| 
|-5-5-5-5---4-4-4-4---3-3-3-3---2-2-2-2-2-0-1---1-1-1-0-----------0-0000000000-| 
| 
| 
-------------------------------------------------------------------------------| 
-------------------------------------------------------------------------------| 
------------------------------------------------------5----5-5-5---------------| 
--7-7-7-7-7-7---------5-5-5-5---4-4-4-4---3----3-3-3---5----5-5-5---2222222222-| 
--7-7-7-7-7-7---------5-5-5-5---5-5-5-5---3----3-3-3---3----3-3-3---2222222222-| 
--5-5-5-5-5-5---------3-3-3-3---2-2-2-2---1----1-1-1-0------------0-0000000000-| 
| 
| 
| 
RIGHT Guitar 
|-5-5-5-5---4-4-4-4---3-3-3-3---2-2-2-2-------8-10---8----8-10-----------------| 
|-5-5-5-5---4-4-4-4---3-3-3-3---2-2-2-2--------------------------0-9999999999--| 
|-5-5-5-5---4-4-4-4---3-3-3-3---2-2-2-2---10-----------9-----------8888888888--| 
|-7-7-7-7---6-6-6-6---5-5-5-5---4-4-4-4----------------------------9999999999--| 
|-7-7-7-7---7-7-7-7---5-5-5-5---5-5-5-5----------------------------7777777777--| 
|-5-5-5-5---4-4-4-4---3-3-3-3---2-2-2-2----------------------------7777777777--| 
| 
| 
--5-5-5-5-5-5----------------------------------8-10--8-----8-10---------------| 
--5-5-5-5-5-5---------7---------7--------------------------------0-9999999999-| 
--5-5-5-5-5-5---7b9-----9-7-------9-7-----10-----------9-----------8888888888-| 
--7-7-7-7-7-7---------------9---------9----------------------------9999999999-| 
--7-7-7-7-7-7------------------------------------------------------7777777777-| 
--5-5-5-5-5-5------------------------------------------------------7777777777-| 



=REPEAT Chorus (fig.1)= 


verse 3 

LEFT Guitar 
|------------------------------------------------------------------------| 
|------------------------------------------------------------------------| 
|----------------------------------------2-----5--4--------2-----5--4----| 
|-------------------------------------0-----0--------0--0-----0--------0-| 
|-0--7--0--5--3-----0--7--0--5--3----------------------------------------| 
|----------------0-----------------0-------------------------------------| 
| :  :  :  :  :  :  :  :  :  :  :  :  :  :  :  :  :  :  :  :  :  :  :  : 
| 
-------------------------------------------------------------------------| 
-------------------------------------------------------------------------| 
-----------5--4----------------------------------------------------------| 
-----5-----------5-------------------------------------------------------| 
--3-----3--------------5-----5--------0--7--0--5--3--------------0--5----| 
--------------------3-----3-----0--3-----------------0--0--3--5--------5-| 
| :  :  :  :  :  :  :  :  :  :  :  :  :  :  :  :  :  : 
| 
-------------------------------------------------------------------------| 
-------------------------------------------------------------------------| 
-----------------------------------------2-----5--4--------2-----5--4----| 
--------------------------------------0-----0--------0--0-----0--------0-| 
--0--7--0--5--3-----0--7--0--5--3----------------------------------------| 
-----------------0-----------------0-------------------------------------| 
| 
| 
--------------------------------------------------------------------------| 
--------------------------------------------------------------------------| 
-----------5--4-----------------------------------------------------------| 
-----5-----------5--------------------5--5--5--5--5--5--5--5--5--5--5--5--| 
--3-----3--------------5-----5--3--0--5--5--5--5--5--5--5--5--5--5--5--5--| 
--------------------3-----3-----------3--3--3--3--3--3--3--3--3--3--3--3--| 
|                                     :  :  :  :  :  : 
| 
| 
RIGHT Guitar 
|-------------------------------------------------------------------------| 
|-10---------10---12---13---------13---12---10-----12b---12b---10---------| 
|-------------------------------------------------------------------10----| 
|-------------------------------------------------------------------------| 
|-------------------------------------------------------------------------| 
|-------------------------------------------------------------------------| 
| 
| 
--------------------------------------------------------------------------| 
--------------------------------------------------------------------------| 
--10--9------9------------------------------------------------------------| 
---------12----------10--9------9-----------------------------------------| 
----------------------------12----------12p10h12--------------------------| 
---------------------------------------------------------13-------12------| 
| 
| 
--------------------------------------------------------------------------| 
--10---------10---12---13---------13---12---10-----12b---12b---10---------| 
--------------------------------------------------------------------10----| 
--------------------------------------------------------------------------| 
--------------------------------------------------------------------------| 
--------------------------------------------------------------------------| 
| 
| 
---------------------------------------------------------------------------| 
---------------------------------------------------------------------------| 
--10--9------9-------------------------------------------------------------| 
---------12----------10--9------9------------------------------------------| 
----------------------------12----------12p10h12---------------------------| 
---------------------------------------------------------------------------| 


verse 4 

LEFT Guitar                      (Play muted strings the THIRD time) 
|--------------------------------------------------------------------------| 
|--------------------------------------------------------------------------| 
|--------------------------------------------------------------------------|     x3 
|-7--7--7---9--9--9---7--7--7---9--9--9---2--2--2--2-(xxxx)-2--2--2--2-----| 
|-7--7--7---9--9--9---7--7--7---9--9--9---2--2--2--2-(xxxx)-2--2--2--2-----| 
|-5--5--5---7--7--7---5--5--5---7--7--7---0--0--0--0-(xxxx)-0--0--0--0-----| 
| 
| 
|-------------------------------------------------| 
|-------------------------------------------------| 
|-------------------------------------------------| 
|-7--7--7---9--9--9---7--7--7---9--9--9---2-------| 
|-7--7--7---9--9--9---7--7--7---9--9--9---2-(x24)-| 
|-5--5--5---7--7--7---5--5--5---7--7--7---0-------| 
|                                         : 
| 
| 
Right Guitar 
|----5---------3----------12----------7---------------------------------| 
|-5-----5-\-3-----3-/-10------10-\-5-----5-9--9--9--9-------9--9--9--9--| 
|------------------------------------------8--8--8--8-------8--8--8--8--|     x3 
|------------------------------------------9--9--9--9-------9--9--9--9--| 
|------------------------------------------7--7--7--7-------7--7--7--7--| 
|------------------------------------------7--7--7--7-------7--7--7--7--| 
| 
| 
|----5---------3----------12----------7-------------| 
|-5-----5-\-3-----3-\-10------10-\-5-----5-9--------| 
|------------------------------------------8--------| 
|------------------------------------------9--(x24)-| 
|------------------------------------------7--------| 
|------------------------------------------7--------| 



Chorus (fig. 2) 
Left Guitar 
|-------------------------------------------------------------------------------| 
|-------------------------------------------------------------------------------| 
|-------------------------------------------------------------------------------| 
|---------------------------------------------------3----------2-----2222222222-| 
|-----------3~-------5---------3--0-----0---------3---3-0-3--3---3-0-2222222222-| 
|-1~--------------------3~-----------3-------1-----------------------0000000000-| 
| 
| 
--------------------------------------------------------------------------------| 
--------------------------------------------------------------------------------| 
--------------------------------------------------------------------------------| 
-------3----------2------------------2--------------3----------2-----2222222222-| 
-----3---3-0-3--3---3-0----2-3-2---3---0-2-5------3---3-0-3--3---3---2222222222-| 
--1---------------------3--------3-----------0-1-------------------0-0000000000-| 
| 
| 
| 
RIGHT Guitar 
|-------------------------------------------------------------------------------| 
|--------------------------------------9--9------------10---8---10---9999999999-| 
|--------------------------------------8--8-----/-9------------------8888888888-| 
|--------------------------------------9--9--------------------------9999999999-| 
|--------------------------------------7--7--------------------------7777777777-| 
|--------------------------------------7--7--------------------------7777777777-| 
| 
| 
--------------------------------------------------------------------------------| 
--------8----5-----8-------------------------------------------------9999999999-| 
--5---------------------7-----5-----7b8b7-5----5h7p5-----------------8888888888-| 
--------------------------------------------7----------7---5--\2--5--9999999999-| 
---------------------------------------------------------------------7777777777-| 
---------------------------------------------------------------------7777777777-| 



Post-Chorus 

BOTH Guitars 
|--------------------------------------------------------------------------------| 
|--------------------------------------------------------------------------------| 
|--------------5-5-5-5-5-5---------------5-5-5--4-4-4---------------5-5-5-5-5-5--| 
|-3-3-3-3-3-3--5-5-5-5-5-5--5-5-5-5-5-5--5-5-5--5-5-5--3-3-3-3-3-3--5-5-5-5-5-5--| 
|-3-3-3-3-3-3--3-3-3-3-3-3--5-5-5-5-5-5--3-3-3--2-2-2--3-3-3-3-3-3--3-3-3-3-3-3--| 
|-1-1-1-1-1-1---------------3-3-3-3-3-3----------------1-1-1-1-1-1---------------| 
| 
|   Left Guitar                             Right Guitar 
     -(First time)--|----(Second)-------|     -(First time)--|----(Second)-------| 
     ---------------|-------------------|     --9------------|--9--------9-------| 
     ---------------|-------------------|     --8------------|--8--------8-------| 
     --2------------|--2--------2-------|     --9-(x12)------|--9-(x24)--9-(x24)-| 
     --2-(x12)------|--2-(x24)--2-(x24)-|     --7------------|--7--------7-------| 
     --0------------|--0--------0-------|     --7------------|--7--------7-------| 
                       :                                        : 



Bridge (fig.1) 

Left Guitar 
|-------------------------------------------------------------------| 
|-------------------------------------------------------------------| 
|---------0---------------------------------------------------------| 
|------3-----3--0----------0----------------0-----------------------| 
|-0---------------------3-----3----------3-----3--------------------| 
|------------------4-------------3--2--------------1--------0-------| 
| :    :  :  :  :  :    :  :  :  :  :    :  :  :   :        : 
| 
| 
| 
RIGHT Guitar     (Listen for timing)            |    (x8) |  (x8) | 
|-------------------------------------------------|---8-----|---7---| 
|-------------------------------------------------|------10-|-----9-| 
|-------------------------------------------------|-10------|-9-----| 
|-------------------------------------------------|---------|-------| 
|-------------------------------------------------|---------|-------| 
|-------------------------------------------------|---------|-------| 



Bridge (Fig. 2) 

LEFT Guitar 
|  (x4) |  (x4) | 
|---0---|---3---|     |-------3-----------------| 
|-----1-|-----1-|     |-----1---1-0-----1-3-1-0-| 
|-2-----|-2-----|     |---2-----------2---------| (x2) 
|-------|-------|     |-------------------------| 
|-------|-------|     |-0-----------0-----------| 
|-------|-------|     |-------------------------| 
| : : :   : : :         : : : : : : : : : : : : 
| 
|     (x4)    |     (x4)    | 
|-------------|-------------| 
|-----1-3-1-0-|-----1-3-1-0-| 
|---2---------|---2---------| (x8) 
|-0-----------|-------------| 
|-------------|-0-----------| 
|-------------|-------------| 
| : : : : : :   : : : : : : 
| 
| 
Right Guitar 
|----10----|          |----12----| 
|-------13-|          |-------13-| 
|-10-------| (x8)     |-14-------| (x8) 
|----------|          |----------| 
|----------|          |----------| 
|----------|          |----------| 
| 
|    (x8)  |  (x8) |          |(x18)|(x18)|          |(x18)|(x18)| 
|----10----|---5---|          |-----|-----|          |-10--|--5--| 
|-------13-|-----5-|          |-10--|--5--|          |-10--|--5--| 
|-10-------|-5-----|  (x2)    |-10--|--5--|  (x2)    |-10--|--5--|  (x4) 
|----------|-------|          |-12--|--7--|          |-12--|--7--| 
|----------|-------|          |-----|-----|          |-12--|--7--| 
|----------|-------|          |-----|-----|          |-10--|--5--| 



Outro 

Left Guitar 
|                 |-------------------------------------------------------------------| 
|                 |-------------------------------------------------------------------| 
|                 |-------------------------------------------------------------------| 
|                 |--------------------------------------------------------------2----| 
|                 |--------------------------------------------------------------2----| 
|                 |--------------------------------------------------------------0----| 
| 
| 
Right Guitar 
|---4---|         |-------------------0-----------------------------0-----------------| 
|-----5-|         |-------1-------------1---------1---------------------1--------0----| 
|-4-----|  (x8)   |-----2---2-------2-----2-----2---2-----------2-----------2----1----| 
|-------|         |---2-------2---2-----------2-------2-----2--------------------2----| 
|-------|         |-0-----------0-----------0-----------0------------------------2----| 
|-------|         |--------------------------------------------------------------0----| 


Notations: 
h - hammer on 
p - pull off 
b - bend 
: - palm mute 
/ - slide up 
\ - slide down 
		  

See also:

tabs David Aguilar - Eco tabs Misc Computer Games - The Witcher 3 Ost - Lullaby Of Woe A Night To Remember Song (acoustic) tabs Misc Computer Games - Damned Black Ops Zombies Menu Music tabs Misc Computer Games - Undertale - His Theme tabs Misc Television - Gravity Falls Theme tabs Misc Computer Games - Far Cry 5 - We Will Rise Again
e-chords

Other versions:

tabs Four Year Strong - Just Drive tabs I The Mighty - Just Drive
auto scroll beats size up size down change color hide chords drawings
tab show chords e-chords YouTube Clip e-chords hide all tabs e-chords go to top tab

share