I The Breather

Doomsday

I The Breather

tabs Advanced advanced

by  JOAOEWERTON

save to print version add songbook text version e-mail correct tuner
chordsukulelecavacokeyboardtabbassdrumsharmonicaflute Guitar Pro
close

there isn't a video lesson for this song

chords

Doomsday

	  		
D|---------------------------------------------------------------------------| 
A|---------------------------------------------------------------------------| 
F|---------------------------------------------------------------------------| 
C|---------------------------------------------------------------------------| 
G|-00-00000-00-00-00000-00-00-000000-00000-00-00-00000-00-00-0000------------| 
C|-00-00000-00-00-00000-00-00-000000-00000-00-00-00000-00-00-0000------------| 

D|---------------------------------------------------------------------------| 
A|---------------------------------------------------------------------------| 
F|---------------------------------------------------------------------------| 
C|---------------------------------------------------------------------------| 
G|-00-00000-00-00-00000-00-00-000000-00000-00-00-00000-000-------------------| 
C|-00-00000-00-00-00000-00-00-000000-00000-00-00-00000-000-7-8-4-------------| 

D|---------------------------------------------------------------------------| 
A|---------------------------------------------------------------------------| 
F|---------------------------------------------------------------------------| 
C|---------------------------------------------------------------------------| 
G|----5-5----6-6----5-5----6-6----------------0------------------------------| 
C|-00-----00-----00-----00-----00-7-8-4-0-1-4--------------------------------| 

D|---------------------------------------------------------------------------| 
A|---------------------------------------------------------------------------| 
F|---------------------------------------------------------------------------| 
C|---------------------------------------------------------------------------| 
G|----5-5----6-6----5-5----6-6-----------------------------------------------| 
C|-00-----00-----00-----00-----00-7-8-4--------------------------------------| 

D|---------------------------------------------------------------------------| 
A|---------------------------------------------------------------------------| 
F|---------------------------------------------------------------------------| 
C|---------------------------------------------------------------------------| 
G|----5-5----6-6----5-5----6-6----------------0------------------------------| 
C|-00-----00-----00-----00-----00-7-8-4-0-1-4--------------------------------| 

D|---------------------------------------------------------------------------| 
A|---------------------------------------------------------------------------| 
F|---------------------------------------------------------------------------| 
C|---------------------------------------------------------------------------| 
G|----5-5----6-6----5-5----6-6-----------------------------------------------| 
C|-00-----00-----00-----00-----00-7-8-4--------------------------------------| 

D|---------------------------------------------------------------------------| 
A|---------------------------------------------------------------------------| 
F|---------------------------------------------------------------------------| 
C|---------------------------------------------------------------------------| 
G|----5-5----6-6----5-5----6-6----------------0------------------------------| 
C|-00-----00-----00-----00-----00-7-8-4-0-1-4--------------------------------| 


D|---------------------------------------------------------------------------| 
A|---------------------------------------------------------------------------| 
F|---------------------------------------------------------------------------| 
C|---------------------------------------------------------------------------| 
G|-000---000---000---000---000---00000---000---000---000------------------0--| 
C|-000---000---000---000---000---00000---000---000---000---00-7-8-4-0-1-4----| 

D|---------------------------------------------------------------------------| 
A|---------------------------------------------------------------------------| 
F|---------------------------------------------------------------------------| 
C|---------------------------------------------------------------------------| 
G|----5-5----6-6----9-9----10-10-10-10-10-10-10-10-10-10---------------------| 
C|-00-----00-----00-----00---------------------------------------------------| 

D|---------------------------------------------------------------------------| 
A|---------------------------------------------------------------------------| 
F|---------------------------------------------------------------------------| 
C|---------------------------------------------------------------------------| 
G|----6----6---------6----6---------------/5----6------------------6----6----| 
C|-0----0----0----0----0----0--0000--1-0-----0----0--1-0-0000-1-0----0----00-| 

D|---------------------------------------------------------------------------| 
A|---------------------------------------------------------------------------| 
F|---------------------------------------------------------------------------| 
C|---------------------------------------------------------------------------| 
G|----6----6---------6----6-------------/5----6------------------6----6------| 
C|-0----0----0----0----0----0--0000--1-0---0----0--1-0-0000-1-0----0----0000-| 

D|---------------------------------------------------------------------------| 
A|---------------------------------------------------------------------------| 
F|---------------------------------------------------------------------------| 
C|---------------------------------------------------------------------------| 
G|-000-000-0-000-00000-0-000-00000-000-000-0-000-00--------------------------| 
C|-000-000-0-000-00000-0-000-00000-000-000-0-000-00--------------------------|x2 

D|---------------------------------------------------------------------------| 
A|---------------------------------------------------------------------------| 
F|---------------------------------------------------------------------------| 
C|---------------------------------------------------------------------------| 
G|---------------------------------------------------------------------------| 
C|-000-000-0-000-00----------------------------------------------------------| 

D|---------------------------------------------------------------------------| 
A|---------------------------------------------------------------------------| 
F|-------6-7-------------6-9-6-9-10------------------------------------------| 
C|-----7-----8-7---7---7-----------------------------------------------------| 
G|-5-8-----------8---8-------------------------------------------------------| 
C|---------------------------------------------------------------------------|x3 

D|---------------------------------------------------------------------------| 
A|---------------------------------------------------------------------------| 
F|-/14~--12-10-9--10--10-10-10-10-10-10-10-10-10-10-10-10-10-10-10-10--------| 
C|---------------------------------------------------------------------------| 
G|--------------------8--8--8--8--8--8--8--8--8--8--8--8--8--8--8--8---------| 
C|---------------------------------------------------------------------------| 

D|---------------------------------------------------------------------------| 
A|---------------------------------------------------------------------------| 
F|-9-9-9-9-9-9-9-9-6-6-6-6-6-7-7-7-------------------------------------------| 
C|---------------------------------------------------------------------------| 
G|-7-7-7-7-7-7-7-7-4-4-4-4-4-5-5-5-------------------------------------------| 
C|---------------------------------------------------------------------------| 

D|---------------------------------------------------------------------------| 
A|---------------------------------------------------------------------------| 
F|-10-10-10-10-10-10-10-10-14-14-14-14-14-14-14-14---------------------------| 
C|---------------------------------------------------------------------------| 
G|-8--8--8--8--8--8--8--8--12-12-12-12-12-12-12-12---------------------------| 
C|---------------------------------------------------------------------------| 

D|---------------------------------------------------------------------------| 
A|---------------------------------------------------------------------------| 
F|-6-6-6-6-6-6-6-6-7-7-7-7-7-7-7-7-------------------------------------------| 
C|---------------------------------------------------------------------------| 
G|-4-4-4-4-4-4-4-4-5-5-5-5-5-5-5-5-------------------------------------------| 
C|---------------------------------------------------------------------------| 

D|---------------------------------------------------------------------------| 
A|---------------------------------------------------------------------------| 
F|---------------------------------------------------------------------------| 
C|-------------------11-7-----------8-11-------------------------------------| 
G|--------------7-10------8----7-10------------------------------------------| 
C|-0-3-7-5/8-11-------------11-----------------------------------------------|x2 

D|---------------------------------------------------------------------------| 
A|---------------------------------------------------------------------------| 
F|------------------------------------9--------------------------------------| 
C|-------------------11-7--------8-11----------------------------------------| 
G|--------------7-10------8-7-10---------------------------------------------| 
C|-0-3-7-5/8-11--------------------------------------------------------------|x2 

D|---------------------------------------------------------------------------| 
A|---------------------------------------------------------------------------| 
F|---------------------------------------------------------------------------| 
C|---------------------------------------------------------------------------| 
G|-0000-00-0-000--000-0-000-0-0000-------------------------------------------| 
C|-0000-00-0-000--000-0-000-0-0000-------------------------------------------|x4 

D|---------------------------------------------------------------------------| 
A|---------------------------------------------------------------------------| 
F|---------------------------0-2---------------------------------------------| 
C|---------------------------------------------------------------------------| 
G|-0--7-8-0--0----------0-2-------0--7-8-0--0-0-1-4-1------------------------| 
C|-0---------0--0-1-3-5-----------0---------0-0-1-4-1------------------------| 

D|---------------------------------------------------------------------------| 
A|---------------------------------------------------------------------------| 
F|---------------------------0-2------------------7*-------------------------| 
C|---------------------------------------------------------------------------| 
G|-0--7-8-0--0----------0-2-------0--7-8-0--0-0-0----------------------------| 
C|-0---------0--0-1-3-5-----------0---------0-0-0----------------------------| 

D|---------------------------------------------------------------------------| 
A|---------------------------------------------------------------------------| 
F|---------------------------0-2---------------------------------------------| 
C|---------------------------------------------------------------------------| 
G|-0--7-8-0--0----------0-2-------0--7-8-0--0-0-1-4-1------------------------| 
C|-0---------0--0-1-3-5-----------0---------0-0-1-4-1------------------------| 

D|---------------------------------------------------------------------------| 
A|---------------------------------------------------------------------------| 
F|---------------------------0-2---------------------------------------------| 
C|---------------------------------------------------------------------------| 
G|-0--7-8-0--0----------0-2-------0--7-8-0--0-0-1-4-1------------------------| 
C|-0---------0--0-1-3-5-----------0---------0-0-1-4-1------------------------| 

D|---------------------------------------------------------------------------| 
A|---------------------------------------------------------------------------| 
F|---------------------------------------------------------------------------| 
C|---------------------------------------------------------------------------| 
G|-0-1-4-1--0-1-4-1--0-1-4-1-0-4-1--0-1-4-1--0-1-4-1-5-8-4-5-----------------| 
C|-0-1-4-1--0-1-4-1--0-1-4-1-0-4-1--0-1-4-1--0-1-4-1-5-8-4-5-----------------|x2 

D|---------------------------------------------------------------------------| 
A|---------------------------------------------------------------------------| 
F|---------------------------------------------------------------------------| 
C|---------------------------------------------------------------------------| 
G|----------------------------0-1-0-------0-1--------------------------------| 
C|-0-1-4-0--0--0--0--0-1-4-0--------4-1-4------------------------------------| 

D|---------------------------------------------------------------------------| 
A|---------------------------------------------------------------------------| 
F|---------------------------------------------------------------------------| 
C|---------------------------------------------------------------------------| 
G|----------------------------0-1-0-------0-1--------------------------------| 
C|-0-1-4-0--0--0--0-1-4-0--0--------4-1-4------------------------------------| 

D|---------------------------------------------------------------------------| 
A|---------------------------------------------------------------------------| 
F|---------------------------------------------------------------------------| 
C|---------------------------------------------------------------------------| 
G|----------------------------0-1-0-------0-1--------------------------------| 
C|-0-1-4-0--0--0--0--0-1-4-0--------4-1-4------------------------------------| 

D|---------------------------------------------------------------------------| 
A|---------------------------------------------------------------------------| 
F|---------------------------------------------------------------------------| 
C|---------------------------------------------------------------------------| 
G|----------------------------0-1-0-------0-1--------------------------------| 
C|-0-1-4-0--0--0--0-1-4-0--0--------4-1-4------------------------------------| 

D|---------------------------------------------------------------------------| 
A|---------------------------------------------------------------------------| 
F|---------------------------------------------------------------------------| 
C|---------------------------------------------------------------------------| 
G|---------------------------------------------------------------------------| 
C|-000-1b3-0-00--000-1b3-0-00--00-00-1b3-0-00--1b3-0-1b3---------------------|x4 

D|---------------------------------------------------------------------------| 
A|---------------------------------------------------------------------------| 
F|---10--10-10-10-10-10-10-10-10-10-10-10-10-10-10-10-10---------------------| 
C|---------------------------------------------------------------------------| 
G|---8--8--8--8--8--8--8--8--8--8--8--8--8--8--8--8--------------------------| 
C|---------------------------------------------------------------------------| 

D|---------------------------------------------------------------------------| 
A|---------------------------------------------------------------------------| 
F|-9-9-9-9-9-9-9-9-6-6-6-6-6-7-7-7-------------------------------------------| 
C|---------------------------------------------------------------------------| 
G|-7-7-7-7-7-7-7-7-4-4-4-4-4-5-5-5-------------------------------------------| 
C|---------------------------------------------------------------------------| 

D|-------------13-17-13----------13-17t18p17-13------------------------------| 
A|----------15----------15----15----------------15---------------------------| 
F|-------14----------------14----------------------14------------------------| 
C|----15----------------------------------------------15---------------------| 
G|-17------------------------------------------------------------------------| 
C|---------------------------------------------------------------------------|x4 

D|---------------------------------------------------------------------------| 
A|---------------------------------------------------------------------------| 
F|---------------------------------------------------------------------------| 
C|---------------------------------------------------------------------------| 
G|-17--17--17--------0--0--0-------------------------------------------------| 
C|-------------------1--1--1-------------------------------------------------| 

D|---------------------------------------------------------------------------| 
A|---------------------------------------------------------------------------| 
F|---------------------------------------------------------------------------| 
C|-----------------------------------------------------------3*--------------| 
G|-0-0-0-0-0-0-0-0-0-0-0-0-0-0-0-0-0-0-0-0-0-0-0-0-0-0-0-0-0-----------------| 
C|-1-1-1-1-1-1-1-1-1-1-1-1-1-1-1-1-1-1-1-1-1-1-1-1-1-1-1-1-1-----------------| 

D|---------------------------------------------------------------------------| 
A|---------------------------------------------------------------------------| 
F|---------------------------------------------------------------------------| 
C|---------------------------------------------------------------------------| 
G|-0-0-0-0--0-0-0-0--0-0-0-0--0-0-0-0--0-0-0-0-0-0-0-0-----------------------| 
C|-1-1-1-1--1-1-1-1--1-1-1-1--1-1-1-1--1-1-1-1-1-1-1-1-----------------------| 

D|---------------------------------------------------------------------------| 
A|---------------------------------------------------------------------------| 
F|---------------------------------------------------------------------------| 
C|---------------------------------------------------------------------------| 
G|-0-0-0-0-0-0-0-0-0-0-0-0--0-0-0-0--0-0-0-0--0-0-0-0--0-0-0-0---------------| 
C|-1-1-1-1-1-1-1-1-1-1-1-1--1-1-1-1--1-1-1-1--1-1-1-1--1-1-1-1---------------| 

D|---------------------------------------------------------------------------| 
A|---------------------------------------------------------------------------| 
F|---------------------------------------------------------------------------| 
C|---------------------------------------------------------------------------| 
G|-0-0-0-0-0-0-0-0--0-0-0----------------------------------------------------| 
C|-1-1-1-1-1-1-1-1--1-1-1----------------------------------------------------| 
 
		  

See also:

tabs Megadeth - Holy Wars...The Punishment Due tabs Megadeth - Symphony Of Destruction tabs Metallica - The unforgiven II tabs Metallica - Sad But True tabs Metallica - Nothing Else Matters tabs Metallica - The Thing That Should Not Be
e-chords

Other versions:

tabs I The Breather - Doomsday tabs A Billion Ernies - Doomsday Robot Army tabs Project 86 - Doomsday Stomp
auto scroll beats size up size down change color hide chords drawings
tab show chords e-chords YouTube Clip e-chords hide all tabs e-chords go to top tab

share with facebook