I Hate Myself

Urban Barbie

I Hate Myself

tabs

by  VICTBORGES

save to print version add songbook text version e-mail correct tuner
chordsukulelecavacokeyboardtabbassdrumsharmonicaflute Guitar Pro
close

there isn't a video lesson for this song

chords

Urban Barbie

	  		

Verse: x4 
e|----------------------------------| 
B|----------------------------------| 
G|-----------------7----------------| 
D|-5-----7-7-5-5---7-7-7-7-7-7-7-7--| 
A|-5-5-5-5-5-5-5-5-5-5-5-5-5-5-5-5--| 
E|-3-3-3-3-3-3-3-3-------8-8-7-7-5--| 

Chorus: 
                                  x4 
e|---------------------------------|-----------------| 
B|---------------------------------|-----------------| 
G|-4-----4-----4---5-----5-----5---|-7-7-7-5-5-5-5-5-| 
D|-5-5-5-5-5-5-5-5-5-5-5-5-5-5-5-5-|-5-5-5-5-5-5-5-5-| 
A|-5-5-5-5-5-5-5-5-3-3-3-3-3-3-3-3-|-3-3-3-3-3-3-3-3-| 
E|-3-3-3-3-3-3-3-3-----------------|-----------------| 

End on a G 
		  

auto scroll beats size up size down change color hide chords drawings
tab show chords e-chords YouTube Clip e-chords hide all tabs e-chords go to top tab

share