Huntingtons

I Really Dont Like It

Huntingtons

tabs

save to print version add songbook text version e-mail correct tuner
chordsukulelecavacokeyboardtabbassdrumsharmonicaflute Guitar Pro
close

there isn't a video lesson for this song

chords

I Really Dont Like It

	  		Intro and Choruses: 
A         D       (Play this 2 times) 
------------------ 
-----------7----- 
--7-------7----- 
--7-------5----- 
--5-------------- 
 
  A      G     E    (Then, play this once) 
------------------------- 
------------------------- 
------------------------- 
--7------5------2------ 
--7------5------2------ 
--5------3------0------ 
 
Verses: 
 
  D    A    D     A     (Play this a few times) 
---------------------------- 
---------------------------- 
--7------------7---------- 
--7-----7-----7-----7---- 
--5-----7-----5-----7---- 
---------5-----------5----- 
  C     A      (Then play this a couple times) 
--------------- 
--------------- 
--5----------- 
--5------5--- 
--3------5--- 
----------7--- 
 
Other part: 
 A    D    A    ?  
------------------------- 
------------------------- 
--------7---------7----- 
--7----7----7----7---- 
--7----5----7----9---- 
--5----------5---------- 

		  

Full key step upFull key step up
Half key step upHalf key step up
Half key step downHalf key step down
Full key step downFull key step down
hide glossary

See also:

tabs Vineyard - Vim Para Adorar-te tabs Warren Barfield - 10 Hours tabs Christian Hymm - Amazing Grace tabs Hillsong - One way tabs 12-Stones - Crash tabs 12-Stones - Broken
e-chords

Other versions:

tabs Huntingtons - I Really Dont Like It
auto scroll beats size up size down change color hide chords drawings
tab show chords e-chords YouTube Clip e-chords hide all tabs e-chords go to top tab

share