Hubert Von Goisern

Stadltür Tab

Hubert Von Goisern

Difficulty: nolevelnolevel

by renejunior

tuner correct add songbook print version text version save to e-mail
chordsukulelecavacokeyboardtabbassdrumsharmonicsflute Guitar Pro
close

there isn't a video lesson for this song

request
chords

Stadltür

  		
Verse 
   G           +               D                     D7          +               G 
E|---------------------------|---------------------|-2-----------2-------------|-----------3---------| 
B|-3-----------3--p0---------|-----------3---------|-----------------3---p1----|-0---h3--------------| 
G|---------0------------0----|------2---------2----|---------2------------2----|------0---------0----| 
D|-----------------0---------|-4---------4---------|-----------------0---------|-----------0---------| 
A|---------------------------|-0-------------------|-0-------------------------|---------------------| 
E|-3-------------------------|---------------------|---------------------------|-3-------------------| 

                                                    /---------------repeat--------------------------\ 
               +               D                     D7          +               G                    
E|-3-----------3-------------|---------------------|-2-----------2-------------|---------------------| 
B|-----------------3---p0----|-----------3---------|-----------------3---p1----|-0-------------------| 
G|---------0------------0----|------2---------2----|---------2------------2----|------0---------0----| 
D|-----------------0---------|-4---------4---------|-----------------0---------|---------------------| 
A|-2-------------------------|-0-------------------|-0-------------------------|-----------2---------| 
E|---------------------------|---------------------|---------------------------|-3-------------------| 


Chorus 
   D7    +                G                    D7                    G 
E|---------------------|-----------3---------|-----------2---------|-----------3---------| 
B|----------------1----|-3---p0--------------|-1-------------------|-3---p0--------------| 
G|-----------2---------|------0---------0----|------2---------2----|------0---------0----| 
D|-0----h4---0---------|-----------0---------|-----------0---------|-----------0---------| 
A|-0-------------------|---------------------|-0-------------------|---------------------| 
E|---------------------|-3-------------------|---------------------|-3-------------------| 
 Oans, zwoa, drei, vier, hob  di   staad,      dass di   nit         obi-      draht 

                                              /---------------repeat--------------------------\ 
   D7    +               G                     D7          +               G 
E|---------------------|-----------3---------|-2-----------2-------------|---------------------| 
B|----------------1----|-3---p0--------------|-----------------3---p1----|-0-------------------| 
G|-----------2---------|------0---------0----|---------2------------2----|------0---------0----| 
D|-0----h4---0---------|-----------0---------|-----------------0---------|---------------------| 
A|-0-------------------|---------------------|-0-------------------------|-----------2---------| 
E|---------------------|-3-------------------|---------------------------|-3-------------------| 
   Obi       übers       Habern-   föd         geht's      a   wengerl     schnell 


Interlude 
   C                                           G 
E|-----------0---------|-3-------------p0----|---------------------|-3-------------------| 
B|-1-------------------|---------------------|-0---------3---------|----------------3----| 
G|------0---------0----|------0---------0----|------0---------0----|------0--------------| 
D|-----------2---------|-----------2---------|-----------0---------|-----------0---------| 
A|-3-------------------|-3-------------------|---------------------|-2-------------------| 
E|---------------------|---------------------|-3-------------------|---------------------| 

   D7       +                                     G 
E|-2-------p0---2---h3----|-5-------\-2---------|-3-------------------|---------------------| 
B|------------------------|---------------------|---------------------|---------------------| 
G|------2------------2----|------5--\------2----|------0---------0----|------0---------0----| 
D|--------------0---------|-----------0---------|-----------0---------|-----------0---------| 
A|-0----------------------|-0-------------------|---------------------|---------------------| 
E|------------------------|---------------------|-3-------------------|-3-------------------| 



************************************                                  

| h   Hammer-on 
| p   Pull-off 
                                           
************************************ 
	  

Full key step upFull key step up
Half key step upHalf key step up
Half key step downHalf key step down
Full key step downFull key step down
Search Paypal
auto scroll beats size up size down change color hide chords drawings
tab show chords e-chords YouTube Clip e-chords hide all tabs e-chords go to top tab

share with facebook