Hot Snakes

This Mystic Decade

Hot Snakes

tabs

by  TAMAMOREIRA

save to print version add songbook text version e-mail correct tuner
chordsukulelecavacokeyboardtabbassdrumsharmonicaflute Guitar Pro
close

there isn't a video lesson for this song

chords

This Mystic Decade

	  		

GUITAR 1: 

              Repeat this until 0:25 
e|--4------------------------------------------------------------| 
B|--4-----2------------------------------------------------------| 
G|--5-----3------------------------------------------------------| 
D|--6-----4------------------------------------------------------| 
A|--6-----4------------------------------------------------------| 
E|--4------------------------------------------------------------| 


              Repeat this until 0:50 
e|---------------------------------------------------------------| 
B|-------------4-------------------------------------------------| 
G|-----------------6---4-----------------------------------------| 
D|--6--(x11)---------------6---4---------------------------------| 
A|--6------------------------------------------------------------| 
E|--4------------------------------------------------------------| 


              -->0:57 
e|---------------------------------------------------------------| 
B|---------------------------------------------------------------| 
G|--9--(x16)--8--(x16)-------------------------------------------| 
D|--9---------8--------------------------------------------------| 
A|--7---------6--------------------------------------------------| 
E|---------------------------------------------------------------| 
   P.M.       P.M. 

               Repeat this until 1:22 
e|---------------------------------------------------------------| 
B|-------------4-------------------------------------------------| 
G|-----------------6---4-----------------------------------------| 
D|--6--(x11)---------------6---4---------------------------------| 
A|--6------------------------------------------------------------| 
E|--4------------------------------------------------------------| 


              -->1:35 
e|---------------------------------------------------------------| 
B|---------------------------------4---(x16)---------------------| 
G|--9--(x16)--8--(x16)--6--(x16)---6b----------------------------| 
D|--9---------8---------6----------------------------------------| 
A|--7---------6---------4----------------------------------------| 
E|---------------------------------------------------------------| 


               Repeat this until 1:48. 
e|---------------------------------------------------------------| 
B|---------------------------------------------------------------| 
G|---------------------------------------------------------------| 
D|--6--(x16)--x-----4---(x3)-------------------------------------| 
A|--6---------x-----4--------------------------------------------| 
E|--4---------x-----2--------------------------------------------| 


Then, the entire song repeats for GUITAR 1 (no intro). Notice that the guitarist now  
adds an octave pedal. 


___________________________________________________________________________________________________________ 


GUITAR 2: 


              Silent during intro.  -->0:25 
e|---------------------------------------------------------------| 
B|---------------------------------------------------------------| 
G|---------------------------------------------------------------| 
D|---------------------------------------------------------------| 
A|---------------------------------------------------------------| 
E|---------------------------------------------------------------| 


              Repeat this until 0:50 
e|---------------------------------------------------------------| 
B|---------------------------------------------------------------| 
G|---------------------------------------------------------------| 
D|--6--(x11)-----------------------------------------------------| 
A|--6----------6---4---------------------------------------------| 
E|--4------------------7---4---2---------------------------------| 


              -->0:57 
e|---------------------------------------------------------------| 
B|---------------------------------------------------------------| 
G|--9--(x16)--8--(x16)-------------------------------------------| 
D|--9---------8--------------------------------------------------| 
A|--7---------6--------------------------------------------------| 
E|---------------------------------------------------------------| 
   P.M.       P.M. 


               Repeat this until 1:22 
e|-----------------------------------------------------------------| 
B|-----------------------------------------------------------------| 
G|-----------------------------------------------------------------| 
D|--6--(x11)-------------------------------------------------------| 
A|--6----------6---4-----------------------------------------------| 
E|--4------------------7---4---2-----------------------------------| 


              -->1:35 
e|---------------------------------------------------------------| 
B|---------------------------------4---(x16)---------------------| 
G|--9--(x16)--8--(x16)--6--(x16)---6b----------------------------| 
D|--9---------8---------6----------------------------------------| 
A|--7---------6---------4----------------------------------------| 
E|---------------------------------------------------------------| 


               Repeat this until 1:48. 
e|---------------------------------------------------------------| 
B|---------------------------------------------------------------| 
G|---------------------------------------------------------------| 
D|--6--(x16)--x-----4---(x3)-------------------------------------| 
A|--6---------x-----4--------------------------------------------| 
E|--4---------x-----2--------------------------------------------| 

Then, the entire song repeats for GUITAR 2 as well (no intro). 

| b  bend 
| /  slide up 
| \  slide down 
| h  hammer-on 
| p  pull-off 
| ~  vibrato 
| +  harmonic 
| x  Mute note 
		  

See also:

tabs Deep Purple - Strange kind of woman tabs Deep Purple - Smoke On The Water tabs Deep Purple - Time To Kill tabs Albert Hammond Jr - Gfc tabs Deep Purple - Soldier Of Fortune tabs Ira! - Nucleo De Base
e-chords

Other versions:

tabs Hot Snakes - This Mystic Decade
auto scroll beats size up size down change color hide chords drawings
tab show chords e-chords YouTube Clip e-chords hide all tabs e-chords go to top tab

share