Homestuck

Showtime

Homestuck

tabs Expert expert

by  UBIRBOMFIM

save to print version add songbook text version e-mail correct tuner
chordsukulelecavacokeyboardtabbassdrumsharmonicaflute Guitar Pro
close

there isn't a video lesson for this song

chords

Showtime

	  		
Tabbed by: Moss 
E-mail: [email protected] 

Tuning: Standard 

e|---------------------------------------------------------------------------| 
B|---------------------------------------------------------------------------| 
G|---------------------------------------------------------------------------| 
D|---------------------------------------------------------------------------| 
A|---------------------------------------------------------------------------| 
E|---------------------------------------------------------------------------| 

e|---------------------------------------------------------1---3-------3-----| 
B|------------------------------------------1--3-------4-----------4---------| 
G|---------------------------------------------------------------------------| 
D|---------------------------------------------------------------------------| 
A|---------------------------------------------------------------------------| 
E|---------------------------------------------------------------------------| 

e|--4---6---4---3---1----------1--3--4--3--------1------3--4--6------8--6--4-| 
B|----------------------4---------------------4------------------------------| 
G|---------------------------------------------------------------------------| 
D|---------------------------------------------------------------------------| 
A|---------------------------------------------------------------------------| 
E|---------------------------------------------------------------------------| 

e|-3-------------------------------------------------------------------------| 
B|----3--0-------------------------------------------------------------------| 
G|---------------------------------------------------------------------------| 
D|---------------------------------------------------------------------------| 
A|---------------------------------------------------------------------------| 
E|---------------------------------------------------------------------------| 

e|-8-10----11-15--11--15---16--18--16--15--13--11---13--15--16--15----11-13--| 
B|---------------------------------------------------------------------------| 
G|---------------------------------------------------------------------------| 
D|---------------------------------------------------------------------------| 
A|---------------------------------------------------------------------------| 
E|---------------------------------------------------------------------------| 

e|--15--16--18----20--18--16--15--10---7--------8----------------------------| 
B|---------------------------------------------------------------------------| 
G|---------------------------------------------------------------------------| 
D|---------------------------------------------------------------------------| 
A|---------------------------------------------------------------------------| 
E|---------------------------------------------------------------------------| 

e|----------0-----1--3--5--1--5-----6--8--6--5--3-----3--5--6--5-----1--3----| 
B|--------3------------------------------------------------------------------| 
G|---------------------------------------------------------------------------| 
D|---------------------------------------------------------------------------| 
A|---------------------------------------------------------------------------| 
E|---------------------------------------------------------------------------| 

e|---5----6----8--------10--8--6--5--0---------------------------------------| 
B|--------------------------------------2-----3------------------------------| 
G|---------------------------------------------------------------------------| 
D|---------------------------------------------------------------------------| 
A|---------------------------------------------------------------------------| 
E|---------------------------------------------------------------------------| 

e|---------------1-----------1-----------1-----------3--0--------------------| 
B|------------------3-----3-----3-----3-----3-----3--------1-----------------| 
G|---------------------2-----------2-----------2-----------------------------| 
D|---------------------------------------------------------------------------| 
A|---------------------------------------------------------------------------| 
E|---------------------------------------------------------------------------| 

e|-3---0---------0---3---0-------0---5---0-------0---5---0-------0-----------| 
B-----------1----------------1---------------2---------------2---------------| 
G|---------------------------------------------------------------------------| 
D|---------------------------------------------------------------------------| 
A|---------------------------------------------------------------------------| 
E|---------------------------------------------------------------------------| 

e|--1-----------1------------------------------------------------------------| 
B|-----3-----3-----3-----3-----3-----------3---------------------------------| 
G|--------2-----------2-----------2-----2-----2-----2------------------------| 
D|-----------------------------------3-----------3---------------------------| 
A|---------------------------------------------------------------------------| 
E|---------------------------------------------------------------------------| 

e|-----0------1--3--5--1--5------6--8--6--5--3--1------3--5--6--5------1-3---| 
B|--3------------------------------------------------------------------------| 
G|---------------------------------------------------------------------------| 
D|---------------------------------------------------------------------------| 
A|---------------------------------------------------------------------------| 
E|---------------------------------------------------------------------------| 

e|---5--6--8-----------------------------------------------------------------| 
B|---------------------------------------------------------------------------| 
G|---------------------------------------------------------------------------| 
D|---------------------------------------------------------------------------| 
A|---------------------------------------------------------------------------| 
E|---------------------------------------------------------------------------| 

e|-10--8--6--5--0-----------0---------0--1--5-----5--3--0------1--3--5--8--1-| 
B|-----------------2------3--------3-----------3-----------------------------| 
G|---------------------------------------------------------------------------| 
D|---------------------------------------------------------------------------| 
A|---------------------------------------------------------------------------| 
E|---------------------------------------------------------------------------| 

e|-6--5--1-------------------------------------------------------------------| 
B|---------------------------------------------------------------------------| 
G|---------------------------------------------------------------------------| 
D|---------------------------------------------------------------------------| 
A|---------------------------------------------------------------------------| 
E|---------------------------------------------------------------------------| 

e|--6--10--8--5------3--6--5--1--0---------1--5--10-----1--5--10--0--3--8--12| 
B|--------------------------------------3------------3-----------------------| 
G|---------------------------------------------------------------------------| 
D|---------------------------------------------------------------------------| 
A|---------------------------------------------------------------------------| 
E|---------------------------------------------------------------------------| 

e|--13---10---5---1-------------------------------1--------------------------| 
B|--------------------3-----------------------3-------3----------------------| 
G|------------------------2---------------2---------------2------------------| 
D|----------------------------3---0---3-----------------------3---0----------| 
A|---------------------------------------------------------------------------| 
E|---------------------------------------------------------------------------| 
 
		  

See also:

tabs Chickenfoot - No Change tabs Chickenfoot - Last Temptation tabs Kylesa - Unknown Awareness tabs Kylesa - To Walk Alone tabs Chickenfoot - Dubai Blues
e-chords

Other versions:

tabs Homestuck - Showtime
auto scroll beats size up size down change color hide chords drawings
tab show chords e-chords YouTube Clip e-chords hide all tabs e-chords go to top tab

share