Homeshake

Love Is Only A Feeling

Homeshake

tabs

by  ADALGOMES

save to print version add songbook text version e-mail correct tuner
chordsukulelecavacokeyboardtabbassdrumsharmonicaflute Guitar Pro
close

there isn't a video lesson for this song

chords

Love Is Only A Feeling

	  		
DROP C 

Verse 

d|--------------|------------|--------|----------| 
A|------3h5-3/5-|-5--3h5-3/5-|----5/3-|----------| 
F|-7p5----------|-4----------|-5------|-4------5-| 
C|-7------------|-5----------|-6------|-5--5-7---| 
G|-8------------|------------|-7------|-7--------| 
C|--------------|-5----------|--------|----------| 
       Eb             F6        Daug      Dm 
       IV             V7      III aug     iii 

d|------------|------------|--------|----------| 
A|-5--3h5-3/5-|-5--3h5-3/5-|----5/3-|----------| 
F|-5----------|-4----------|-5------|-4------5-| 
C|-7----------|-5----------|-6------|-5--5-7---| 
G|-8----------|------------|-7------|-7--------| 
C|------------|-5----------|--------|----------| 

d|----------|----------|----------|----------| 
A|------10--|-5--------|----------|----------| 
F|-/12------|-4--------|-5--------|-4--------| 
C|-/10------|-5--------|-6--------|-5--------| 
G|-/12------|----------|-7--------|-7--------| 
C|----------|-5--------|----------|----------| 

d|----------|----------|----------|----------| 
A|----------|-5--------|----------|----------| 
F|-5--------|-4--------|-5--------|-4--------| 
C|-7--------|-5--------|-6--------|-5--------| 
G|-8--------|----------|-7--------|-7--------| 
C|----------|-5--------|----------|----------| 

d|----------|----------|----------|----------| 
A|----------|-5--------|----------|----------| 
F|-5--------|-4--------|-5--------|-4--------| 
C|-7--------|-5--------|-6--------|-5--------| 
G|-8--------|----------|-7--------|-7--------| 
C|----------|-5--------|----------|----------| 

d|----------|----------|----------|----------| 
A|----------|-5--------|----------|----------| 
F|-5--------|-4--------|-5--------|-4--------| 
C|-7--------|-5--------|-6--------|-5--------| 
G|-8--------|----------|-7--------|-7--------| 
C|----------|-5--------|----------|----------| 


Bridge 

d|--------|---------|-----------|----------|-7-----|----------7-| 
A|-5---5/-|---------|-----15-13-|-11---5/7-|-7-----|-5h7p5------| 
F|-4------|-5---7-5-|-8---------|-10-------|-5-----|-------5----| 
C|-5------|-6-------|-7---------|-10-------|-7-----|------------| 
G|-3------|-7-------|-8---------|-8--------|-------|------------| 
C|--------|---------|-----------|----------|-------|------------| 
   Bbmaj7    D7#5       Eb7        Eb7sus4   Gm6/9 
     I      IIIaug      IV7        IV7sus4    vi 


Verse 

d|------------|------------|--------|----------| 
A|-5--3h5-3/5-|-5--3h5-3/5-|----5/3-|----------| 
F|-7----------|-4----------|-5------|-4------5-| 
C|-7----------|-5----------|-6------|-5--5-7---| 
G|-8----------|------------|-7------|-7--------| 
C|------------|-5----------|--------|----------| 
      Eb            F6       Daug       Dm 
      IV            V7      III aug     iii 

d|------------|------------|--------|----------| 
A|-5--3h5-3/5-|-5--3h5-3/5-|----5/3-|----------| 
F|-5----------|-4----------|-5------|-4------5-| 
C|-7----------|-5----------|-6------|-5--5-7---| 
G|-8----------|------------|-7------|-7--------| 
C|------------|-5----------|--------|----------| 


STANDARD TUNING TAB 

Verse 

e|--------------|------------|--------|----------| 
B|------1h3-1/3-|-3--1h3-1/3-|----3/1-|----------| 
G|-5p3----------|-2----------|-3------|-2------3-| 
D|-5------------|-3----------|-4------|-3--3-5---| 
A|-6------------|------------|-5------|-5--------| 
E|--------------|-1----------|--------|----------| 
       Eb             F6        Daug      Dm 
       IV             V7      III aug     iii 

e|------------|------------|--------|----------| 
B|-3--1h3-1/3-|-3--1h3-1/3-|----3/1-|----------| 
G|-3----------|-2----------|-3------|-2------3-| 
D|-5----------|-3----------|-4------|-3--3-5---| 
A|-6----------|------------|-5------|-5--------| 
E|------------|-1----------|--------|----------| 

e|---------|----------|----------|----------| 
B|------8--|-3--------|----------|----------| 
G|-/10-----|-2--------|-3--------|-2--------| 
D|-/8------|-3--------|-4--------|-3--------| 
A|-/10-----|----------|-5--------|-5--------| 
E|---------|-1--------|----------|----------| 

e|----------|----------|----------|----------| 
B|----------|-3--------|----------|----------| 
G|-3--------|-2--------|-3--------|-2--------| 
D|-5--------|-3--------|-4--------|-3--------| 
A|-6--------|----------|-5--------|-5--------| 
E|----------|-1--------|----------|----------| 

e|----------|----------|----------|----------| 
B|----------|-3--------|----------|----------| 
G|-3--------|-2--------|-3--------|-2--------| 
D|-5--------|-3--------|-4--------|-3--------| 
A|-6--------|----------|-5--------|-5--------| 
E|----------|-1--------|----------|----------| 

e|----------|----------|----------|----------| 
B|----------|-3--------|----------|----------| 
G|-3--------|-2--------|-3--------|-2--------| 
D|-5--------|-3--------|-4--------|-3--------| 
A|-6--------|----------|-5--------|-5--------| 
E|----------|-1--------|----------|----------| 


Bridge 

e|--------|---------|-----------|---------|-5-----|----------5-| 
B|-3---3/-|---------|-----13-11-|-9---3/5-|-5-----|-3h5p3------| 
G|-2------|-3---5-3-|-6---------|-8-------|-3-----|-------3----| 
D|-3------|-4-------|-5---------|-8-------|-5-----|------------| 
A|-1------|-5-------|-6---------|-6-------|-------|------------| 
E|--------|---------|-----------|---------|-------|------------| 
   Bbmaj7    D7#5       Eb7        Eb7sus4   Gm6/9 
     I      IIIaug      IV7        IV7sus4    vi 


Verse 

e|------------|------------|--------|----------| 
B|-3--1h3-1/3-|-3--1h3-1/3-|----3/1-|----------| 
G|-3----------|-2----------|-3------|-2------3-| 
D|-5----------|-3----------|-4------|-3--3-5---| 
A|-6----------|------------|-5------|-5--------| 
E|------------|-1----------|--------|----------| 
      Eb            F6       Daug       Dm 
      IV            V7      III aug     iii 

e|------------|------------|--------|----------| 
B|-3--1h3-1/3-|-3--1h3-1/3-|----3/1-|----------| 
G|-3----------|-2----------|-3------|-2------3-| 
D|-5----------|-3----------|-4------|-3--3-5---| 
A|-6----------|------------|-5------|-5--------| 
E|------------|-1----------|--------|----------| 


*********************************** 

| /   Slide up 
| h   Hammer-on 
| p   Pull-off 
| b   Bend 

*********************************** 
		  

Full key step upFull key step up
Half key step upHalf key step up
Half key step downHalf key step down
Full key step downFull key step down
hide glossary

See also:

tabs Deep Purple - Demonds Eye tabs Deep Purple - Money Talks tabs Ira! - Eu Quero Sempre Mais (Com Pitty, intro) tabs Albert Hammond Jr - Holiday tabs Deep Purple - Smoke on the water (intro) tabs Deep Purple - Smoke on the Water (ver. 2)
e-chords

Other versions:

tabs The Darkness - Love Is Only A Feeling tabs Homeshake - Love Is Only A Feeling
auto scroll beats size up size down change color hide chords drawings
tab show chords e-chords YouTube Clip e-chords hide all tabs e-chords go to top tab

share