Home Grown

Get A Job

Home Grown

tabs

by  JOAOEWERTON

save to print version add songbook text version e-mail correct tuner
chordsukulelecavacokeyboardtabbassdrumsharmonicaflute Guitar Pro
close

there isn't a video lesson for this song

chords

Get A Job

	  		Intro: 

e-|---------------------------------------------------------| 
B-|---------------------------------------------------------| 
G-|---6-7------6-7------6-7-----4---6-7------6-7------6-7---| 
D-|-7-6-7-2--7-6-7-2--7-6-7-2-6-4-7-6-7-2--7-6-7-2--7-6-7-2-| 
A-|-7-4-5-2--7-4-5-2--7-4-5-2-6-2-7-4-5-2--7-4-5-2--7-4-5-2-| 
E-|-5-----0--5-----0--5-----0-4---5-----0--5-----0--5-----0-| 

e-|---------------------------| 
B-|---------------------------| 
G-|---6-7-----4---6-7-------2-| 
D-|-7-6-7-2-6-4-7-6-7-2--2--2-| 
A-|-7-4-5-2-6-2-7-4-5-2--2--0-| 
E-|-5-----0-4---5-----0--0----| 

pre-Verse: 
(played 2x) 

e-|-------------------------------------------------| 
B-|-------------------------------------------------| 
G-|-------------7-7-7-7-7-7-9-9-9-9-9-9-7-7-7-7-7-7-| 
D-|-7-7-7-7-7-7-7-7-7-7-7-7-9-9-9-9-9-9-7-7-7-7-7-7-| 
A-|-7-7-7-7-7-7-5-5-5-5-5-5-7-7-7-7-7-7-5-5-5-5-5-5-| 
E-|-5-5-5-5-5-5-------------------------------------| 


e-|---------------------------------| 
B-|---------------------------------| 
G-|-------------7-7-7-7-7-7-9--8--7-| 
D-|-7-7-7-7-7-7-7-7-7-7-7-7-9--8--7-| 
A-|-7-7-7-7-7-7-5-5-5-5-5-5-7--6--5-| 
E-|-5-5-5-5-5-5---------------------| 

Verse: 
(played 2x w/ palm-mute)"I've been wastin' my life..." 

e-|-------------------------------------------------| 
B-|-------------------------------------------------| 
G-|-------------7-7-7-7-7-7-9-9-9-9-9-9-7-7-7-7-7-7-| 
D-|-7-7-7-7-7-7-7-7-7-7-7-7-9-9-9-9-9-9-7-7-7-7-7-7-| 
A-|-7-7-7-7-7-7-5-5-5-5-5-5-7-7-7-7-7-7-5-5-5-5-5-5-| 
E-|-5-5-5-5-5-5-------------------------------------| 

Pre-Chorus 
"I don't wanna go to work..." 

e-|---------------------------------------------------------------------| 
B-|---------------------------------------------------------------------| 
G-|------------------7-x-x-x-7--7-7-7-9-x-x-x-9--9-9-9-7-x-x-x-7--7-7-7-| 
D-|-7-x-x-x-7--7-7-7-7-x-x-x-7--7-7-7-9-x-x-x-9--9-9-9-7-x-x-x-7--7-7-7-| 
A-|-7-x-x-x-7--7-7-7-5-x-x-x-5--5-5-5-7-x-x-x-7--7-7-7-5-x-x-x-5--5-5-5-| 
E-|-5-x-x-x-5--5-5-5----------------------------------------------------| 


e|-----------------------------------------------------------------------| 
B-|----------------------------------------------------------------------| 
G-|------------------7-x-x-x-7--7-7-7-9-x-x-x-9--9-9-9-7-x-x-x-7--7-7-7--| 
D-|-7-x-x-x-7--7-7-7-7-x-x-x-7--7-7-7-9-x-x-x-9--9-9-9-7-x-x-x-7--7-7-7--| 
A-|-7-x-x-x-7--7-7-7-5-x-x-x-5--5-5-5-7-x-x-x-7--7-7-7-5-x-x-x-5--5-5-5--| 
E-|-5-x-x-x-5--5-5-5-----------------------------------------------------| 


e-|----------------------| 
B-|----------------------| 
G-|-9------------9-7-6-4-| 
D-|-9-(let ring)-9-7-6-4-| 
A-|-7------------7-5-4-2-| 
E-|----------------------| 

Chorus:(played 2x)"I'm goin' out to get a job..." 

e-|---------------------------------------------------------------------| 
B-|---------------------------------------------------------------------| 
G-|-7----9---------9----7-7-7-7-7-7-7-7-7-7-7-7-9-9-9-9-9-9-9-9-9-9-9-9-| 
D-|-7----9----7----9----7-7-7-7-7-7-7-7-7-7-7-7-9-9-9-9-9-9-9-9-9-9-9-9-| 
A-|-5----7----7----7----5-5-5-5-5-5-5-5-5-5-5-5-7-7-7-7-7-7-7-7-7-7-7-7-| 
E-|-----------5---------------------------------------------------------| 

pre-verse (played 2x)verse (played 2x) "A couple years have gone by..." 
Pre-ChorusChorus (played 4x, 3rd and 4th time have no pauses, listen to the cd) 
Bridge:(played 2x) 


e-|----------------------------------------------------------------------| 
B-|----------------------------------------------------------------------| 
G-|-----7-7-7-7--7-7-7-7--7-6-----7-7-7-7--7-7-7-7--7-6-------7--6-7-9-9-| 
D-|-7---7-7-7-7--7-7-7-7--7-6-7---7-7-7-7--7-7-7-7--7-6-4--2--7--6-7-9-9-| 
A-|-7---5-5-5-5--5-5-5-5--5-4-7---5-5-5-5--5-5-5-5--5-4-4--2--5--4-5-7-7-| 
E-|-5-------------------------5-------------------------2--0-------------| 

e-|-----| 
B-|-----| 
G-|-9-9-| 
D-|-9-9-| 
A-|-7-7-| 
E-|-----| 

Chorus (played 4x, 3rd and 4th time have no pauses, listen to the cd) 

intro riff 
end 
		  

See also:

tabs Deep Purple - Smoke on the Water (solo) tabs Eagles - Take It Easy tabs Dire Straits - Sultans of Swing tabs White Stripes - the seven nation army tabs Yes - Roundabout tabs Queen - Love of my Life
e-chords

Other versions:

tabs Home Grown - Get A Job
auto scroll beats size up size down change color hide chords drawings
tab show chords e-chords YouTube Clip e-chords hide all tabs e-chords go to top tab

share