Holly Tree

Friday Night

Holly Tree

tabs

by  DEIO.PUNXXX

save to print version add songbook text version e-mail correct tuner
chordsukulelecavacokeyboardtabbassdrumsharmonicaflute Guitar Pro
close

there isn't a video lesson for this song

chords

Friday Night

	  		Equipe do Cifras.com.br, o Holly Tree eh brasileiro viu... um abraço... 
 
 
Legenda:  /   slide crescente 
          -   slide crescente na cifra  
          h   hammer-on 
          p   pull-off 
 
 
Intro: 
 
  A#5 B5  B5  A#5 B5  B5 
e|---------------------------| 
B|---------------------------| 
G|---------------------------| 
D|--8/9-9-9-9-9-8/9-9-9-9-9--| 
A|--8/9-9-9-9-9-8/9-9-9-9-9--| 
E|--6/7-7-7-7-7-6/7-7-7-7-7--| 
 
 
Primeiro verso: 
 
   Em F#5 A#5 B5 B5  A#5 B5   B5 
e|---------------------------------| 
B|---------------------------------| 
G|---------------------------------| 
D|--2--4--8/9-9-9-9-9-8/9-9-9-9-9--| 
A|--2--4--8/9-9-9-9-9-8/9-9-9-9-9--| 
E|--0--2--6/7-7-7-7-7-6/7-7-7-7-7--| 
 
 
Os demais versos: 
 
        Em          F#5    A#5 B5 B5  A#5 B5   B5 
e|---------------------------------------------------| 
B|---------------------------------------------------| 
G|---------------------------------------------------| 
D|--2-2-2-2-2-2-4-4-4-4-4-4-8/9-9-9-9-9-8/9-9-9-9-9--| 
A|--2-2-2-2-2-2-4-4-4-4-4-4-8/9-9-9-9-9-8/9-9-9-9-9--| 
E|--0-0-0-0-0-0-2-2-2-2-2-2-6/7-7-7-7-7-6/7-7-7-7-7--| 
 
 
Refrão ( eh akela parte do yeah, yeah, yeah... ): 
 
       Em     A5 G#5    F#5         A#5 B5 B5  A#5 B5   B5 
e|--------------------------------|---------------------------| 
B|--------------------------------|---------------------------| 
G|--------------------------------|---------------------------| 
D|--2-2-2-2-2-2-7-6-4-4-4-4-4-4---|--8/9-9-9-9-9-8/9-9-9-9-9--| 
A|--2-2-2-2-2-2-7-6-4-4-4-4-4-4---|--8/9-9-9-9-9-8/9-9-9-9-9--| 
E|--0-0-0-0-0-0-5-4-2-2-2-2-2-2---|--6/7-7-7-7-7-6/7-7-7-7-7--| 
 |________________________________|    
           quatro vezes 
 
 
Daí aki vc tok a intro dnovo 
 
 
Interlúdio: 
 
                         A#5 B5 B5  A#5 B5   B5 
e|------------------------------------------------| 
B|--5h7p5h7p5-7h9p7h9p7---------------------------| 
G|--7-7-7-7-7-9-9-9-9-9---------------------------| 
D|-----------------------8/9-9-9-9-9-8/9-9-9-9-9--| 
A|-----------------------8/9-9-9-9-9-8/9-9-9-9-9--| 
E|-----------------------6/7-7-7-7-7-6/7-7-7-7-7--| 
 
 
Daí a intro mais uma vez 
 
Daí o refrão 
 
FRIDAY NIIIIIIIIIIIGHT... 
 
 
Aew pessoaw, sakem q comédia no pleonasmo q o krinha q narra uma espécie d intinerário no começo dessa músik comete qndo ele fala "sai em direção a saída...". 
Notem tbm q ele prepara o intinerário na hr... rsrsrs 
Um abraaaaaço... 

		  

Full key step upFull key step up
Half key step upHalf key step up
Half key step downHalf key step down
Full key step downFull key step down
hide glossary

See also:

tabs Detonautas - Outro lugar tabs Legião Urbana - Pais e Filhos(solo) tabs Cássia Eller - Malandragem (Acoustic) tabs Legião Urbana - Pais e Filhos tabs Capital Inicial - A sua maneira (ver. 2) tabs Engenheiros do Hawaii - Infinita Highway
e-chords

Other versions:

tabs Darkness - Friday Night tabs Holly Tree - Friday Night tabs Mcfly - Friday Night tabs Allister - Friday Night tabs The Damned Things - Friday Night (Going Down in Flames) tabs The Darkness - Friday Night (ver. 1)
auto scroll beats size up size down change color hide chords drawings
tab show chords e-chords YouTube Clip e-chords hide all tabs e-chords go to top tab

share