Hollies

home > Hollies

Just One Look Tab

Hollies

Difficulty: nolevelnolevel

by marcnagel

tuner correct add songbook print version text version save to e-mail
chordsukulelecavacokeyboardtabbassdrumsharmonicsflute Guitar Pro
chords

Just One Look

  		 Intro 
  Q=130 
             D               G       A 
  Gtrs I, II (El. & Ac. Gtr.) 
  W          Q  E E E E Q    E E E E E E Q 
|----------|-2--x-x-x-2-2--|----------------| 
|----------|-3--x-x-x-3-3--|----------------| 
|----------|-2--x-x-x-2-2--|-4-4-x-4-6-6-x--| 
|----------|-4--x-x-x-4-4--|-5-5-x-5-7-7-x--| 
|----------|-5--x-x-x-5-5--|-5-5-x-5-7-7-x--| 
|----------|---------------|-3-3-x-3-5-5-x--| 


  D               G       A 
  Q  E E E E Q    E E E E E E Q 
|-2--x-x-x-2-2--|------------------|| 
|-3--x-x-x-3-3--|------------------|| 
|-2--x-x-x-2-2--|-4-4-x-4-6-6-x----|| 
|-4--x-x-x-4-4--|-5-5-x-5-7-7-x----|| 
|-5--x-x-x-5-5--|-5-5-x-5-7-7-x----|| 
|---------------|-3-3-x-3-5-5-x----|| 


   1st - 3rd Verses 
    $ 
    D                                   B5 
    q  q  E S S E E   E E E E E E E E   E E E E E E E E   E E E E E E E E 
||----------2-2-2-2-|-2-x-2-x-2-x-2-x-|-----------------|------------------| 
||o---------3-3-3-3-|-3-x-3-x-3-x-3-x-|-----------------|------------------| 
||--2--2--2-2-2-2-2-|-2-x-2-x-2-x-2-x-|-4-x-4-x-4-x-4-x-|-4-x-4-x-4-x-4-x--| 
||--4--4--4-4-4-4-4-|-4-x-4-x-4-x-4-x-|-4-x-4-x-4-x-4-x-|-4-x-4-x-4-x-4-x--| 
||o-5--5--5-5-5-5-5-|-5-x-5-x-5-x-5-x-|-2-x-2-x-2-x-2-x-|-2-x-2-x-2-x-2-x--| 
||------------------|-----------------|-----------------|------------------| 


  G                                   A5 
  Q  Q  E S S E E   E E E E E E E E   E E E E E E E E   E E E E E E E E 
|-----------------|-----------------|-----------------|-----------------| 
|-----------------|-----------------|-----------------|-----------------| 
|-4--4--4-4-4-4-4-|-4-x-4-x-4-x-4-x-|-----------------|-----------------| 
|-5--5--5-5-5-5-5-|-5-x-5-x-5-x-5-x-|-7-x-7-x-7-x-7-x-|-7-x-7-x-7-x-7-x-| 
|-5--5--5-5-5-5-5-|-5-x-5-x-5-x-5-x-|-7-x-7-x-7-x-7-x-|-7-x-7-x-7-x-7-x-| 
|-3--3--3-3-3-3-3-|-3-x-3-x-3-x-3-x-|-5-x-5-x-5-x-5-x-|-5-x-5-x-5-x-5-x-| 


  D                                   B5 
  q  q  E S S E E   E E E E E E E E   E E E E E E E E   E E E E E E E E 
|---------2-2-2-2-|-2-x-2-x-2-x-2-x-|-----------------|-----------------| 
|---------3-3-3-3-|-3-x-3-x-3-x-3-x-|-----------------|-----------------| 
|-2--2--2-2-2-2-2-|-2-x-2-x-2-x-2-x-|-4-x-4-x-4-x-4-x-|-4-x-4-x-4-x-4-x-| 
|-4--4--4-4-4-4-4-|-4-x-4-x-4-x-4-x-|-4-x-4-x-4-x-4-x-|-4-x-4-x-4-x-4-x-| 
|-5--5--5-5-5-5-5-|-5-x-5-x-5-x-5-x-|-2-x-2-x-2-x-2-x-|-2-x-2-x-2-x-2-x-| 
|-----------------|-----------------|-----------------|-----------------| 


  1. 
  G                                   A5 
  Q  Q  E S S E E   E E E E E E E E   E E E E E E E E   E E E E E E E E 
|-----------------|-----------------|-----------------|------------------|| 
|-----------------|-----------------|-----------------|-----------------o|| 
|-4--4--4-4-4-4-4-|-4-x-4-x-4-x-4-x-|-----------------|------------------|| 
|-5--5--5-5-5-5-5-|-5-x-5-x-5-x-5-x-|-7-x-7-x-7-x-7-x-|-7-x-7-x-7-x-7-x--|| 
|-5--5--5-5-5-5-5-|-5-x-5-x-5-x-5-x-|-7-x-7-x-7-x-7-x-|-7-x-7-x-7-x-7-x-o|| 
|-3--3--3-3-3-3-3-|-3-x-3-x-3-x-3-x-|-5-x-5-x-5-x-5-x-|-5-x-5-x-5-x-5-x--|| 


  2.,D.S. 
  G                 A5                  D 
  E E E E E E E E   E E E E E E E E   E E E E Q  Q    Q  Q   Q   Q 
|-----------------|-----------------|---------------|-------10--10---|| 
|-----------------|-----------------|---7-7-7-7--7--|-7--7--10--10---|| 
|-4-x-4-x-4-x-4-x-|-----------------|---7-7-7-7--7--|-7--7--11--11---|| 
|-5-x-5-x-5-x-5-x-|-7-x-7-x-7-x-7-x-|---7-7-7-7--7--|-7--7--12--12---|| 
|-5-x-5-x-5-x-5-x-|-7-x-7-x-7-x-7-x-|---5-5-5-5--5--|-5--5--12--12---|| 
|-3-x-3-x-3-x-3-x-|-5-x-5-x-5-x-5-x-|---------------|-------10--10---|| 


 Bridge 
  G                                  D                             D# 
  Q  E E E E E E   E E E E E E E E   E E E E E E E E   E E E E E E E E 
|-3--3-3-3-3-3-3-|-3-3-3-3-3-3-3-3-|---2-2-2-2-2-2-2-|-2-2-2-2----------| 
|-3--3-3-3-3-3-3-|-3-3-3-3-3-3-3-3-|-3-3-3-3-3-3-3-3-|-3-3-3-3----------| 
|-4--4-4-4-4-4-4-|-4-4-4-4-4-4-4-4-|-2-2-2-2-2-2-2-2-|-2-2-2-2-2-2-3-3--| 
|-5--5-5-5-5-5-5-|-5-5-5-5-5-5-5-5-|-4-4-4-4-4-4-4-4-|-4-4-4-4-4-4-5-5--| 
|-5--5-5-5-5-5-5-|-5-5-5-5-5-5-5-5-|-5-5-5-5-5-5-5-5-|-5-5-5-5-5-5-6-6--| 
|-3--3-3-3-3-3-3-|-3-3-3-3-3-3-3-3-|-----------------|------------------| 


                                               D.S. al Coda 
                                               D.S. al Coda 
  E                                A 
                                         |-3-| 
  Q  E E E E E E   E E E E Q  Q    Q  Q  Q Q Q   H.      Q 
|----4-4-4-4-4-4-|-4-4-4-4-4--4--|-5--5--5-5-5-|-5-------5--|| 
|-5--5-5-5-5-5-5-|-5-5-5-5-5--5--|-5--5--5-5-5-|-5-------5--|| 
|-4--4-4-4-4-4-4-|-4-4-4-4-4--4--|-6--6--6-6-6-|-6-------6--|| 
|-6--6-6-6-6-6-6-|-6-6-6-6-6--6--|-7--7--7-7-7-|-7-------7--|| 
|-7--7-7-7-7-7-7-|-7-7-7-7-7--7--|-7--7--7-7-7-|-7-------7--|| 
|----------------|---------------|-5--5--5-5-5-|-5-------5--|| 


   Outro 
    & 
    D               G       A        D                  G       A 
    Q  E E E E Q    E E E E E E Q    Q  E E E S S E E   E E E E E E Q 
||--2--x-x-x-2-2--|----------------|-2--x-x-x-2-2-2-2-|-----------------| 
||o-3--x-x-x-3-3--|----------------|-3--x-x-x-3-3-3-3-|-----------------| 
||--2--x-x-x-2-2--|-4-4-x-4-6-6-x--|-2--x-x-x-2-2-2-2-|-4-4-x-4-6-6-x---| 
||--4--x-x-x-4-4--|-5-5-x-5-7-7-x--|-4--x-x-x-4-4-4-4-|-5-5-x-5-7-7-x---| 
||o-5--x-x-x-5-5--|-5-5-x-5-7-7-x--|-5--x-x-x-5-5-5-5-|-5-5-x-5-7-7-x---| 
||----------------|-3-3-x-3-5-5-x--|------------------|-3-3-x-3-5-5-x---| 


  D                  G       A        D                  G       A 
  Q  E E E S S E E   E E E E E E Q    Q  E E E S S E E   E E E E E E Q 
|-2--x-x-x-2-2-2-2-|----------------|-2--x-x-x-2-2-2-2-|------------------|| 
|-3--x-x-x-3-3-3-3-|----------------|-3--x-x-x-3-3-3-3-|-----------------o|| 
|-2--x-x-x-2-2-2-2-|-4-4-x-4-6-6-x--|-2--x-x-x-2-2-2-2-|-4-4-x-4-6-6-x----|| 
|-4--x-x-x-4-4-4-4-|-5-5-x-5-7-7-x--|-4--x-x-x-4-4-4-4-|-5-5-x-5-7-7-x----|| 
|-5--x-x-x-5-5-5-5-|-5-5-x-5-7-7-x--|-5--x-x-x-5-5-5-5-|-5-5-x-5-7-7-x---o|| 
|------------------|-3-3-x-3-5-5-x--|------------------|-3-3-x-3-5-5-x----||  
	  

Full key step upFull key step up
Half key step upHalf key step up
Half key step downHalf key step down
Full key step downFull key step down
Search Paypal
auto scroll beats size up size down change color hide chords drawings
tab show chords e-chords YouTube Clip e-chords hide all tabs e-chords go to top tab