Hippo Campus

Sophie So

Hippo Campus

tabs

by  HUGO_RODRIGUES

save to print version add songbook text version e-mail correct tuner
chordsukulelecavacokeyboardtabbassdrumsharmonicaflute Guitar Pro
close

there isn't a video lesson for this song

chords

Sophie So

	  		
Intro 

e|-----7---9----4-------12---------7---9----4-------12-----| 
B|-----7--------4-------12---------7--------4-------12-----| 
G|-----8--------5-------13---------8--------5-------13-----| 
D|-----9--------6-------14---------9--------6-------14-----| 
A|-----9--------6-------14---------9--------6-------14-----| 
E|---7-7------4-4----12-12-------7-7------4-4----12-12-----| 

e|-----7---9----4-------12---------7---9----4-------12-----| 
B|-----7--------4-------12---------7--------4-------12-----| 
G|-----8--------5-------13---------8--------5-------13-----| 
D|-----9--------6-------14---------9--------6-------14-----| 
A|-----9--------6-------14---------9--------6-------14-----| 
E|---7-7------4-4----12-12-------7-7------4-4----12-12-----| 

Verse 

e|-----7---9----4--------0---------7---9----4-------12-----| 
B|-----7--------4--------0---------7--------4-------12-----| 
G|-----8--------5--------1---------8--------5-------13-----| 
D|-----9--------6--------2---------9--------6-------14-----| 
A|-----9--------6--------2---------9--------6-------14-----| 
E|---7-7------4-4------2-0-------7-7------4-4----12-12-----| 

e|-----7---9----4--------0---------7---9----4-------12-----| 
B|-----7--------4--------0---------7--------4-------12-----| 
G|-----8--------5--------1---------8--------5-------13-----| 
D|-----9--------6--------2---------9--------6-------14-----| 
A|-----9--------6--------2---------9--------6-------14-----| 
E|---7-7------4-4------2-0-------7-7------4-4----12-12-----| 

"All gone..." 

e|-----6--7------6--7------6--7----------------------------| 
B|-----6--7------6--7------6--7----------------------------| 
G|-----6--8------6--8------6--8----------------------------| 
D|-----8--9------8--9------8--9----------------------------| 
A|-----8--9------8--9------8--9----------------------------| 
E|-----6--7------6--7------6--7----------------------------| 

Chorus 

e|-----7--------4-------12---------7--------4-------12-----| 
B|-----7--------4-------12---------7--------4-------12-----| 
G|-----8--------5-------13---------8--------5-------13-----| 
D|-----9--------6-------14---------9--------6-------14-----| 
A|-----9--------6-------14---------9--------6-------14-----| 
E|-----7--------4-------12---------7--------4-------12-----| 
		  

See also:

tabs Deep Purple - Demonds Eye tabs Deep Purple - Money Talks tabs Ira! - Eu Quero Sempre Mais (Com Pitty, intro) tabs Albert Hammond Jr - Holiday tabs Deep Purple - Smoke on the water (intro) tabs Deep Purple - Smoke on the Water (ver. 2)
e-chords

Other versions:

tabs Hippo Campus - Sophie So
auto scroll beats size up size down change color hide chords drawings
tab show chords e-chords YouTube Clip e-chords hide all tabs e-chords go to top tab

share