Hinder

Stay The Same

Hinder

tabs

by  RENEJUNIOR

save to print version add songbook text version e-mail correct tuner
chordsukulelecavacokeyboardtabbassdrumsharmonicaflute Guitar Pro
close

there isn't a video lesson for this song

chords

Stay The Same

	  		E |-------------------------------\ 
A |-6---6---6---6---4---------2---\ 
D |---4---4---3---3----3--3h4-4---\ 
G |-------------------------------\ 
B |-------------------------------\ 
E |-------------------------------\ 

E |-------------------------------\ 
A |6---6---6---6---4--------------\ 
D |---4---4---3---3----3--7-(6)-\ 
G |-------------------------------\ 
B |-------------------------------\ 
E |-------------------------------\ 

E |-------------------------------\ 
A |-------------------------------\ 
D |-------------------------------\ 
G |-8---8---8---8---6---6---------\ 
B |---7---7---6---6---6---4-------\ 
E |-------------------------------\ 

E |-------------------------------\ 
A |-------------------------------\ 
D |-------------------------------\ 
G |8---8---8---8---6-6h7-6--------\ 
B |---7---7---6---6---6-----------\ 
E |-------------------------------\ 

E |-------------------------------\ 
A |--6---6-6-6---6-6-6---6-6-6----\ 
D |--4---4-4-3---3-3-4---4-4-4----\ 
G |-------------------------------\ 
B |-------------------------------\ 
E |-------------------------------\ 

E |--------------------\ 
A |--------------------\ 
D |--4-----------------\ 
G |----6---------------\ 
B |------7-6~---4h6h4--\ 
E |--------------------\ 

E |-------------------------------\ 
A |--6---6-6-6---6-6-6---6-6-6----\ 
D |--4---4-4-3---3-3-4---4-4-4----\ 
G |-------------------------------\ 
B |-------------------------------\ 
E |-------------------------------\ 

E |-----------------\ 
A |-----------------\ 
D |--4--------------\ 
G |----6---6~-------\ 
B |------7----------\ 
E |-----------------\ 

E |----------------\ 
A |-6-6-6-6-6-6-6-6\ 
D |-8-8-8-8-8-8-8-8\ 
G |----------------\ 
B |----------------\ 
E |----------------\ 

E |----------------\ 
A |----------------\ 
D |-4-4-4-4-4-4-4-4\ 
B |-6-6-6-6-6-6-6-6\ 
B |----------------\ 
E |----------------\ 

E |----------------\ 
A |-4-4-4-4-4-4-4-4\ 
D |-6-6-6-6-6-6-6-6\ 
G |----------------\ 
B |----------------\ 
E |----------------\ 

E |----------------\ 
A |-6-6-6-6-6-6-6-6\ 
D |-8-8-8-8-8-8-8-8\ 
G |----------------\ 
B |----------------\ 
E |----------------\ 

E |-------------------------------------------\ 
A |-------------------------------------------\ 
D |-------------------------------------------\ 
G |-----------6~------------------------------\ 
B |-/4~-6h7p6-----6--666-7-7/9--7--6--4-4h6p4~\ 
E |-------------------------------------------\ 
		  

auto scroll beats size up size down change color hide chords drawings
tab show chords e-chords YouTube Clip e-chords hide all tabs e-chords go to top tab

share