Hinário Adventista

home > Hinário Adventista

Vigiar E Orar Tab

Hinário Adventista

Difficulty: nolevelnolevel

by HELON

tuner correct add songbook print version text version save to e-mail
chordsukulelecavacokeyboardtabbassdrumsharmonicsflute Guitar Pro
chords

Vigiar E Orar

(Hinário Adventista)

  		 




1   |   |   |   |     |   |   |   |     |   |   |   |      |   |   |   |     
E |-------------5---|-8----0------5---|----------7--10-8-|-7---5-----5-----| 
B |----------8----8-|---------8-8---8-|-8---6------------|---------8---6-8-| 
G |-----------------|-----------------|------------------|-----------------| 
D |-----------------|-----------------|------------------|-----------------| 
A |-----------------|-----------------|------------------|-----------------| 
E |-----------------|-----------------|------------------|-----------------| 



5   |   |   |   |      |   |   |   |      |   |   |   |      |   |   |   |   
E |-0----------------|-8---8---7-8-10-8-|-7-----------10-8-|-7-----------5-| 
B |----------8--10-8-|------------------|-----10---10------|------8--7-----| 
G |------------------|------------------|------------------|---------------| 
D |------------------|------------------|------------------|---------------| 
A |------------------|------------------|------------------|---------------| 
E |------------------|------------------|------------------|---------------| 



9   |   |   |   |     |   |   |   |      |   |   |   |     |   |   |   |    
E |----------0----5-|----------0--8-10-|-8-----------7-5-|-3--------------| 
B |-8-----------8---|-8----------------|-----------------|-----15------12-| 
G |-----------------|------------------|-----------------|----------------| 
D |-----------------|------------------|-----------------|----------------| 
A |-----------------|------------------|-----------------|----------------| 
E |-----------------|------------------|-----------------|----------------| 



13  |   |   |   |  
E |--------------| 
B |-13-----------| 
G |--------------| 
D |--------------| 
A |--------------| 
E |--------------| 
	  

Search Paypal
auto scroll beats size up size down change color hide chords drawings
tab show chords e-chords YouTube Clip e-chords hide all tabs e-chords go to top tab